  0
SECTION
  2
HEADER
  9
$ACADVER
  1
AC1009
  9
$LUNITS
  70
2
  9
$LIMMIN
  10
2106028.00
  20
2887635.00
  9
$LIMMAX
  10
2114230.00
  20
2895837.00
  9
$EXTMIN
  10
2106028.00
  20
2887635.00
  9
$EXTMAX
  10
2114230.00
  20
2895837.00
  999
Created by Global Mapper
  999
Projection: State Plane Coordinate System
  999
Datum: NAD83
  999
Ground Units: feet
  999
ZONE: 5004
  999
STATE PLANE SCALE FACTOR: 1
  999
EXTRA FALSE EASTING (m): 0
  999
EXTRA FALSE NORTHING (m): 0
  999
EXTRA SCALE CENTER EASTING (m): 0
  999
EXTRA SCALE CENTER NORTHING (m): 0
  0
ENDSEC
  0
SECTION
  2
BLOCKS
  0
BLOCK
  8
FeatureAttribs
  70
0
  2
FEATURE
  3
FEATURE
  10
0.00000000
  20
0.00000000
  0
ATTDEF
  8
FeatureAttribs
  70
0
  1
 
  2
NAME
  3
NAME
  10
0.00000000
  20
0.00000000
  40
1.00000000
  0
ENDBLK
  0
ENDSEC
  0
SECTION
  2
ENTITIES
  0
POLYLINE
  8
Unknown_Line_Type
  70
8
  66
1
 62
0
 39
0
  0
VERTEX
  8
Unknown_Line_Type
  70
32
  10
2106042.38
  20
2887635.00
  30
2992
  0
VERTEX
  8
Unknown_Line_Type
  70
32
  10
2106042.38
  20
2887635.00
  30
2992
  0
SEQEND
  8
Unknown_Line_Type
  0
POLYLINE
  8
Unknown_Line_Type
  70
8
  66
1
 62
0
 39
0
  0
VERTEX
  8
Unknown_Line_Type
  70
32
  10
2106151.84
  20
2887635.00
  30
2994
  0
VERTEX
  8
Unknown_Line_Type
  70
32
  10
2106151.84
  20
2887635.00
  30
2994
  0
SEQEND
  8
Unknown_Line_Type
  0
POLYLINE
  8
Unknown_Line_Type
  70
8
  66
1
 62
0
 39
0
  0
VERTEX
  8
Unknown_Line_Type
  70
32
  10
2106197.48
  20
2887635.00
  30
2996
  0
VERTEX
  8
Unknown_Line_Type
  70
32
  10
2106197.48
  20
2887635.00
  30
2996
  0
SEQEND
  8
Unknown_Line_Type
  0
POLYLINE
  8
Unknown_Line_Type
  70
8
  66
1
 62
0
 39
0
  0
VERTEX
  8
Unknown_Line_Type
  70
32
  10
2106224.03
  20
2887635.00
  30
2998
  0
VERTEX
  8
Unknown_Line_Type
  70
32
  10
2106224.03
  20
2887635.00
  30
2998
  0
SEQEND
  8
Unknown_Line_Type
  0
POLYLINE
  8
Unknown_Line_Type
  70
8
  66
1
 62
0
 39
0
  0
VERTEX
  8
Unknown_Line_Type
  70
32
  10
2106246.82
  20
2887635.00
  30
3000
  0
VERTEX
  8
Unknown_Line_Type
  70
32
  10
2106246.82
  20
2887635.00
  30
3000
  0
SEQEND
  8
Unknown_Line_Type
  0
POLYLINE
  8
Unknown_Line_Type
  70
8
  66
1
 62
0
 39
0
  0
VERTEX
  8
Unknown_Line_Type
  70
32
  10
2106286.68
  20
2887635.00
  30
3002
  0
VERTEX
  8
Unknown_Line_Type
  70
32
  10
2106286.68
  20
2887635.00
  30
3002
  0
SEQEND
  8
Unknown_Line_Type
  0
POLYLINE
  8
Unknown_Line_Type
  70
8
  66
1
 62
0
 39
0
  0
VERTEX
  8
Unknown_Line_Type
  70
32
  10
2106335.53
  20
2887635.00
  30
3004
  0
VERTEX
  8
Unknown_Line_Type
  70
32
  10
2106335.53
  20
2887635.00
  30
3004
  0
SEQEND
  8
Unknown_Line_Type
  0
POLYLINE
  8
Unknown_Line_Type
  70
8
  66
1
 62
0
 39
0
  0
VERTEX
  8
Unknown_Line_Type
  70
32
  10
2106389.97
  20
2887635.00
  30
3006
  0
VERTEX
  8
Unknown_Line_Type
  70
32
  10
2106389.97
  20
2887635.00
  30
3006
  0
SEQEND
  8
Unknown_Line_Type
  0
POLYLINE
  8
Unknown_Line_Type
  70
8
  66
1
 62
0
 39
0
  0
VERTEX
  8
Unknown_Line_Type
  70
32
  10
2106439.47
  20
2887635.00
  30
3008
  0
VERTEX
  8
Unknown_Line_Type
  70
32
  10
2106439.47
  20
2887635.00
  30
3008
  0
SEQEND
  8
Unknown_Line_Type
  0
POLYLINE
  8
Unknown_Line_Type
  70
8
  66
1
 62
0
 39
0
  0
VERTEX
  8
Unknown_Line_Type
  70
32
  10
2106503.38
  20
2887635.00
  30
3010
  0
VERTEX
  8
Unknown_Line_Type
  70
32
  10
2106503.38
  20
2887635.00
  30
3010
  0
SEQEND
  8
Unknown_Line_Type
  0
POLYLINE
  8
Unknown_Line_Type
  70
8
  66
1
 62
0
 39
0
  0
VERTEX
  8
Unknown_Line_Type
  70
32
  10
2106555.39
  20
2887635.00
  30
3012
  0
VERTEX
  8
Unknown_Line_Type
  70
32
  10
2106555.39
  20
2887635.00
  30
3012
  0
SEQEND
  8
Unknown_Line_Type
  0
POLYLINE
  8
Unknown_Line_Type
  70
8
  66
1
 62
0
 39
0
  0
VERTEX
  8
Unknown_Line_Type
  70
32
  10
2106605.84
  20
2887635.00
  30
3014
  0
VERTEX
  8
Unknown_Line_Type
  70
32
  10
2106605.84
  20
2887635.00
  30
3014
  0
SEQEND
  8
Unknown_Line_Type
  0
POLYLINE
  8
Unknown_Line_Type
  70
8
  66
1
 62
0
 39
0
  0
VERTEX
  8
Unknown_Line_Type
  70
32
  10
2106690.62
  20
2887635.00
  30
3016
  0
VERTEX
  8
Unknown_Line_Type
  70
32
  10
2106690.62
  20
2887635.00
  30
3016
  0
SEQEND
  8
Unknown_Line_Type
  0
POLYLINE
  8
Unknown_Line_Type
  70
8
  66
1
 62
0
 39
0
  0
VERTEX
  8
Unknown_Line_Type
  70
32
  10
2107112.31
  20
2887635.00
  30
3016
  0
VERTEX
  8
Unknown_Line_Type
  70
32
  10
2107112.31
  20
2887635.00
  30
3016
  0
SEQEND
  8
Unknown_Line_Type
  0
POLYLINE
  8
Unknown_Line_Type
  70
8
  66
1
 62
0
 39
0
  0
VERTEX
  8
Unknown_Line_Type
  70
32
  10
2107120.99
  20
2887635.00
  30
3016
  0
VERTEX
  8
Unknown_Line_Type
  70
32
  10
2107120.99
  20
2887635.00
  30
3016
  0
SEQEND
  8
Unknown_Line_Type
  0
POLYLINE
  8
Unknown_Line_Type
  70
8
  66
1
 62
0
 39
0
  0
VERTEX
  8
Unknown_Line_Type
  70
32
  10
2107337.16
  20
2887635.00
  30
3018
  0
VERTEX
  8
Unknown_Line_Type
  70
32
  10
2107337.16
  20
2887635.00
  30
3018
  0
SEQEND
  8
Unknown_Line_Type
  0
POLYLINE
  8
Unknown_Line_Type
  70
8
  66
1
 62
0
 39
0
  0
VERTEX
  8
Unknown_Line_Type
  70
32
  10
2107324.72
  20
2887635.00
  30
3018
  0
VERTEX
  8
Unknown_Line_Type
  70
32
  10
2107324.72
  20
2887635.00
  30
3018
  0
SEQEND
  8
Unknown_Line_Type
  0
POLYLINE
  8
Unknown_Line_Type
  70
8
  66
1
 62
0
 39
0
  0
VERTEX
  8
Unknown_Line_Type
  70
32
  10
2107313.83
  20
2887635.00
  30
3018
  0
VERTEX
  8
Unknown_Line_Type
  70
32
  10
2107313.83
  20
2887635.00
  30
3018
  0
SEQEND
  8
Unknown_Line_Type
  0
POLYLINE
  8
Unknown_Line_Type
  70
8
  66
1
 62
0
 39
0
  0
VERTEX
  8
Unknown_Line_Type
  70
32
  10
2107312.68
  20
2887635.00
  30
3018
  0
VERTEX
  8
Unknown_Line_Type
  70
32
  10
2107312.68
  20
2887635.00
  30
3018
  0
SEQEND
  8
Unknown_Line_Type
  0
POLYLINE
  8
Unknown_Line_Type
  70
8
  66
1
 62
0
 39
0
  0
VERTEX
  8
Unknown_Line_Type
  70
32
  10
2107295.42
  20
2887635.00
  30
3018
  0
VERTEX
  8
Unknown_Line_Type
  70
32
  10
2107295.42
  20
2887635.00
  30
3018
  0
SEQEND
  8
Unknown_Line_Type
  0
POLYLINE
  8
Unknown_Line_Type
  70
8
  66
1
 62
0
 39
0
  0
VERTEX
  8
Unknown_Line_Type
  70
32
  10
2107593.38
  20
2887635.00
  30
3018
  0
VERTEX
  8
Unknown_Line_Type
  70
32
  10
2107593.38
  20
2887635.00
  30
3018
  0
SEQEND
  8
Unknown_Line_Type
  0
POLYLINE
  8
Unknown_Line_Type
  70
8
  66
1
 62
0
 39
0
  0
VERTEX
  8
Unknown_Line_Type
  70
32
  10
2106028.00
  20
2887898.54
  30
2986
  0
VERTEX
  8
Unknown_Line_Type
  70
32
  10
2106028.03
  20
2887898.53
  30
2986
  0
VERTEX
  8
Unknown_Line_Type
  70
32
  10
2106031.12
  20
2887893.17
  30
2986
  0
VERTEX
  8
Unknown_Line_Type
  70
32
  10
2106035.09
  20
2887889.05
  30
2986
  0
VERTEX
  8
Unknown_Line_Type
  70
32
  10
2106039.48
  20
2887888.31
  30
2986
  0
VERTEX
  8
Unknown_Line_Type
  70
32
  10
2106042.66
  20
2887885.25
  30
2986
  0
VERTEX
  8
Unknown_Line_Type
  70
32
  10
2106047.24
  20
2887880.91
  30
2986
  0
VERTEX
  8
Unknown_Line_Type
  70
32
  10
2106052.35
  20
2887871.50
  30
2986
  0
VERTEX
  8
Unknown_Line_Type
  70
32
  10
2106059.17
  20
2887866.10
  30
2986
  0
VERTEX
  8
Unknown_Line_Type
  70
32
  10
2106056.98
  20
2887862.39
  30
2986
  0
VERTEX
  8
Unknown_Line_Type
  70
32
  10
2106051.47
  20
2887859.69
  30
2986
  0
VERTEX
  8
Unknown_Line_Type
  70
32
  10
2106044.13
  20
2887863.20
  30
2986
  0
VERTEX
  8
Unknown_Line_Type
  70
32
  10
2106044.75
  20
2887864.82
  30
2986
  0
VERTEX
  8
Unknown_Line_Type
  70
32
  10
2106039.53
  20
2887868.88
  30
2986
  0
VERTEX
  8
Unknown_Line_Type
  70
32
  10
2106036.98
  20
2887866.36
  30
2986
  0
VERTEX
  8
Unknown_Line_Type
  70
32
  10
2106035.90
  20
2887863.64
  30
2986
  0
VERTEX
  8
Unknown_Line_Type
  70
32
  10
2106035.68
  20
2887861.60
  30
2986
  0
VERTEX
  8
Unknown_Line_Type
  70
32
  10
2106028.61
  20
2887855.70
  30
2986
  0
VERTEX
  8
Unknown_Line_Type
  70
32
  10
2106028.00
  20
2887855.23
  30
2986
  0
SEQEND
  8
Unknown_Line_Type
  0
POLYLINE
  8
Unknown_Line_Type
  70
8
  66
1
 62
0
 39
0
  0
VERTEX
  8
Unknown_Line_Type
  70
32
  10
2106028.00
  20
2887788.68
  30
2986
  0
VERTEX
  8
Unknown_Line_Type
  70
32
  10
2106030.75
  20
2887787.93
  30
2986
  0
VERTEX
  8
Unknown_Line_Type
  70
32
  10
2106028.69
  20
2887797.31
  30
2986
  0
VERTEX
  8
Unknown_Line_Type
  70
32
  10
2106030.47
  20
2887802.09
  30
2986
  0
VERTEX
  8
Unknown_Line_Type
  70
32
  10
2106032.63
  20
2887800.29
  30
2986
  0
VERTEX
  8
Unknown_Line_Type
  70
32
  10
2106035.99
  20
2887799.31
  30
2986
  0
VERTEX
  8
Unknown_Line_Type
  70
32
  10
2106035.29
  20
2887797.97
  30
2986
  0
VERTEX
  8
Unknown_Line_Type
  70
32
  10
2106036.03
  20
2887788.30
  30
2986
  0
VERTEX
  8
Unknown_Line_Type
  70
32
  10
2106039.00
  20
2887787.95
  30
2986
  0
VERTEX
  8
Unknown_Line_Type
  70
32
  10
2106045.78
  20
2887776.60
  30
2986
  0
VERTEX
  8
Unknown_Line_Type
  70
32
  10
2106045.04
  20
2887772.21
  30
2986
  0
VERTEX
  8
Unknown_Line_Type
  70
32
  10
2106033.64
  20
2887769.88
  30
2986
  0
VERTEX
  8
Unknown_Line_Type
  70
32
  10
2106028.00
  20
2887772.90
  30
2986
  0
SEQEND
  8
Unknown_Line_Type
  0
POLYLINE
  8
Unknown_Line_Type
  70
8
  66
1
 62
0
 39
0
  0
VERTEX
  8
Unknown_Line_Type
  70
32
  10
2106028.00
  20
2887908.75
  30
2988
  0
VERTEX
  8
Unknown_Line_Type
  70
32
  10
2106032.82
  20
2887904.89
  30
2988
  0
VERTEX
  8
Unknown_Line_Type
  70
32
  10
2106035.76
  20
2887898.97
  30
2988
  0
VERTEX
  8
Unknown_Line_Type
  70
32
  10
2106037.50
  20
2887896.24
  30
2988
  0
VERTEX
  8
Unknown_Line_Type
  70
32
  10
2106042.08
  20
2887895.45
  30
2988
  0
VERTEX
  8
Unknown_Line_Type
  70
32
  10
2106046.89
  20
2887896.15
  30
2988
  0
VERTEX
  8
Unknown_Line_Type
  70
32
  10
2106051.82
  20
2887891.61
  30
2988
  0
VERTEX
  8
Unknown_Line_Type
  70
32
  10
2106057.98
  20
2887888.19
  30
2988
  0
VERTEX
  8
Unknown_Line_Type
  70
32
  10
2106066.07
  20
2887883.57
  30
2988
  0
VERTEX
  8
Unknown_Line_Type
  70
32
  10
2106073.34
  20
2887879.70
  30
2988
  0
VERTEX
  8
Unknown_Line_Type
  70
32
  10
2106078.69
  20
2887878.57
  30
2988
  0
VERTEX
  8
Unknown_Line_Type
  70
32
  10
2106080.35
  20
2887879.24
  30
2988
  0
VERTEX
  8
Unknown_Line_Type
  70
32
  10
2106093.76
  20
2887878.48
  30
2988
  0
VERTEX
  8
Unknown_Line_Type
  70
32
  10
2106098.66
  20
2887877.39
  30
2988
  0
VERTEX
  8
Unknown_Line_Type
  70
32
  10
2106101.97
  20
2887881.84
  30
2988
  0
VERTEX
  8
Unknown_Line_Type
  70
32
  10
2106109.25
  20
2887882.45
  30
2988
  0
VERTEX
  8
Unknown_Line_Type
  70
32
  10
2106112.78
  20
2887882.29
  30
2988
  0
VERTEX
  8
Unknown_Line_Type
  70
32
  10
2106117.69
  20
2887881.64
  30
2988
  0
VERTEX
  8
Unknown_Line_Type
  70
32
  10
2106124.15
  20
2887878.87
  30
2988
  0
VERTEX
  8
Unknown_Line_Type
  70
32
  10
2106128.86
  20
2887876.84
  30
2988
  0
VERTEX
  8
Unknown_Line_Type
  70
32
  10
2106130.89
  20
2887877.41
  30
2988
  0
VERTEX
  8
Unknown_Line_Type
  70
32
  10
2106135.01
  20
2887878.99
  30
2988
  0
VERTEX
  8
Unknown_Line_Type
  70
32
  10
2106140.44
  20
2887880.87
  30
2988
  0
VERTEX
  8
Unknown_Line_Type
  70
32
  10
2106142.31
  20
2887881.74
  30
2988
  0
VERTEX
  8
Unknown_Line_Type
  70
32
  10
2106145.26
  20
2887887.94
  30
2988
  0
VERTEX
  8
Unknown_Line_Type
  70
32
  10
2106144.50
  20
2887889.67
  30
2988
  0
VERTEX
  8
Unknown_Line_Type
  70
32
  10
2106144.67
  20
2887892.33
  30
2988
  0
VERTEX
  8
Unknown_Line_Type
  70
32
  10
2106145.86
  20
2887893.26
  30
2988
  0
VERTEX
  8
Unknown_Line_Type
  70
32
  10
2106145.75
  20
2887906.71
  30
2988
  0
VERTEX
  8
Unknown_Line_Type
  70
32
  10
2106146.81
  20
2887909.43
  30
2988
  0
VERTEX
  8
Unknown_Line_Type
  70
32
  10
2106149.17
  20
2887906.52
  30
2988
  0
VERTEX
  8
Unknown_Line_Type
  70
32
  10
2106149.00
  20
2887894.06
  30
2988
  0
VERTEX
  8
Unknown_Line_Type
  70
32
  10
2106152.20
  20
2887892.42
  30
2988
  0
VERTEX
  8
Unknown_Line_Type
  70
32
  10
2106156.30
  20
2887890.55
  30
2988
  0
VERTEX
  8
Unknown_Line_Type
  70
32
  10
2106166.28
  20
2887888.08
  30
2988
  0
VERTEX
  8
Unknown_Line_Type
  70
32
  10
2106167.48
  20
2887890.33
  30
2988
  0
VERTEX
  8
Unknown_Line_Type
  70
32
  10
2106168.83
  20
2887891.23
  30
2988
  0
VERTEX
  8
Unknown_Line_Type
  70
32
  10
2106169.39
  20
2887896.98
  30
2988
  0
VERTEX
  8
Unknown_Line_Type
  70
32
  10
2106167.57
  20
2887903.33
  30
2988
  0
VERTEX
  8
Unknown_Line_Type
  70
32
  10
2106170.33
  20
2887912.48
  30
2988
  0
VERTEX
  8
Unknown_Line_Type
  70
32
  10
2106169.79
  20
2887913.79
  30
2988
  0
VERTEX
  8
Unknown_Line_Type
  70
32
  10
2106175.38
  20
2887919.11
  30
2988
  0
VERTEX
  8
Unknown_Line_Type
  70
32
  10
2106178.01
  20
2887919.79
  30
2988
  0
VERTEX
  8
Unknown_Line_Type
  70
32
  10
2106178.76
  20
2887924.02
  30
2988
  0
VERTEX
  8
Unknown_Line_Type
  70
32
  10
2106180.91
  20
2887926.64
  30
2988
  0
VERTEX
  8
Unknown_Line_Type
  70
32
  10
2106182.22
  20
2887931.55
  30
2988
  0
VERTEX
  8
Unknown_Line_Type
  70
32
  10
2106182.75
  20
2887933.62
  30
2988
  0
VERTEX
  8
Unknown_Line_Type
  70
32
  10
2106183.07
  20
2887934.18
  30
2988
  0
VERTEX
  8
Unknown_Line_Type
  70
32
  10
2106186.94
  20
2887938.13
  30
2988
  0
VERTEX
  8
Unknown_Line_Type
  70
32
  10
2106186.35
  20
2887933.37
  30
2988
  0
VERTEX
  8
Unknown_Line_Type
  70
32
  10
2106186.69
  20
2887930.09
  30
2988
  0
VERTEX
  8
Unknown_Line_Type
  70
32
  10
2106185.77
  20
2887924.45
  30
2988
  0
VERTEX
  8
Unknown_Line_Type
  70
32
  10
2106188.84
  20
2887922.06
  30
2988
  0
VERTEX
  8
Unknown_Line_Type
  70
32
  10
2106187.30
  20
2887918.84
  30
2988
  0
VERTEX
  8
Unknown_Line_Type
  70
32
  10
2106185.11
  20
2887908.74
  30
2988
  0
VERTEX
  8
Unknown_Line_Type
  70
32
  10
2106184.60
  20
2887905.22
  30
2988
  0
VERTEX
  8
Unknown_Line_Type
  70
32
  10
2106184.21
  20
2887897.63
  30
2988
  0
VERTEX
  8
Unknown_Line_Type
  70
32
  10
2106191.41
  20
2887893.17
  30
2988
  0
VERTEX
  8
Unknown_Line_Type
  70
32
  10
2106195.39
  20
2887896.96
  30
2988
  0
VERTEX
  8
Unknown_Line_Type
  70
32
  10
2106203.16
  20
2887905.73
  30
2988
  0
VERTEX
  8
Unknown_Line_Type
  70
32
  10
2106204.08
  20
2887895.89
  30
2988
  0
VERTEX
  8
Unknown_Line_Type
  70
32
  10
2106202.93
  20
2887892.53
  30
2988
  0
VERTEX
  8
Unknown_Line_Type
  70
32
  10
2106202.96
  20
2887881.26
  30
2988
  0
VERTEX
  8
Unknown_Line_Type
  70
32
  10
2106202.81
  20
2887876.02
  30
2988
  0
VERTEX
  8
Unknown_Line_Type
  70
32
  10
2106197.49
  20
2887872.87
  30
2988
  0
VERTEX
  8
Unknown_Line_Type
  70
32
  10
2106194.20
  20
2887870.10
  30
2988
  0
VERTEX
  8
Unknown_Line_Type
  70
32
  10
2106189.68
  20
2887862.75
  30
2988
  0
VERTEX
  8
Unknown_Line_Type
  70
32
  10
2106189.41
  20
2887854.17
  30
2988
  0
VERTEX
  8
Unknown_Line_Type
  70
32
  10
2106187.37
  20
2887855.47
  30
2988
  0
VERTEX
  8
Unknown_Line_Type
  70
32
  10
2106184.80
  20
2887852.10
  30
2988
  0
VERTEX
  8
Unknown_Line_Type
  70
32
  10
2106181.50
  20
2887856.49
  30
2988
  0
VERTEX
  8
Unknown_Line_Type
  70
32
  10
2106169.85
  20
2887857.90
  30
2988
  0
VERTEX
  8
Unknown_Line_Type
  70
32
  10
2106166.53
  20
2887857.94
  30
2988
  0
VERTEX
  8
Unknown_Line_Type
  70
32
  10
2106163.15
  20
2887852.66
  30
2988
  0
VERTEX
  8
Unknown_Line_Type
  70
32
  10
2106155.54
  20
2887849.95
  30
2988
  0
VERTEX
  8
Unknown_Line_Type
  70
32
  10
2106153.36
  20
2887847.90
  30
2988
  0
VERTEX
  8
Unknown_Line_Type
  70
32
  10
2106150.54
  20
2887846.09
  30
2988
  0
VERTEX
  8
Unknown_Line_Type
  70
32
  10
2106149.03
  20
2887843.30
  30
2988
  0
VERTEX
  8
Unknown_Line_Type
  70
32
  10
2106148.45
  20
2887837.69
  30
2988
  0
VERTEX
  8
Unknown_Line_Type
  70
32
  10
2106148.25
  20
2887835.28
  30
2988
  0
VERTEX
  8
Unknown_Line_Type
  70
32
  10
2106149.20
  20
2887827.18
  30
2988
  0
VERTEX
  8
Unknown_Line_Type
  70
32
  10
2106152.64
  20
2887825.43
  30
2988
  0
VERTEX
  8
Unknown_Line_Type
  70
32
  10
2106156.89
  20
2887821.03
  30
2988
  0
VERTEX
  8
Unknown_Line_Type
  70
32
  10
2106159.12
  20
2887814.22
  30
2988
  0
VERTEX
  8
Unknown_Line_Type
  70
32
  10
2106159.03
  20
2887809.30
  30
2988
  0
VERTEX
  8
Unknown_Line_Type
  70
32
  10
2106161.89
  20
2887800.00
  30
2988
  0
VERTEX
  8
Unknown_Line_Type
  70
32
  10
2106159.06
  20
2887797.08
  30
2988
  0
VERTEX
  8
Unknown_Line_Type
  70
32
  10
2106155.06
  20
2887791.32
  30
2988
  0
VERTEX
  8
Unknown_Line_Type
  70
32
  10
2106145.67
  20
2887794.56
  30
2988
  0
VERTEX
  8
Unknown_Line_Type
  70
32
  10
2106138.30
  20
2887794.54
  30
2988
  0
VERTEX
  8
Unknown_Line_Type
  70
32
  10
2106136.90
  20
2887794.46
  30
2988
  0
VERTEX
  8
Unknown_Line_Type
  70
32
  10
2106133.12
  20
2887792.91
  30
2988
  0
VERTEX
  8
Unknown_Line_Type
  70
32
  10
2106132.77
  20
2887787.47
  30
2988
  0
VERTEX
  8
Unknown_Line_Type
  70
32
  10
2106134.38
  20
2887780.38
  30
2988
  0
VERTEX
  8
Unknown_Line_Type
  70
32
  10
2106136.78
  20
2887770.93
  30
2988
  0
VERTEX
  8
Unknown_Line_Type
  70
32
  10
2106139.83
  20
2887765.75
  30
2988
  0
VERTEX
  8
Unknown_Line_Type
  70
32
  10
2106140.58
  20
2887760.08
  30
2988
  0
VERTEX
  8
Unknown_Line_Type
  70
32
  10
2106148.01
  20
2887758.95
  30
2988
  0
VERTEX
  8
Unknown_Line_Type
  70
32
  10
2106150.59
  20
2887756.82
  30
2988
  0
VERTEX
  8
Unknown_Line_Type
  70
32
  10
2106151.13
  20
2887749.21
  30
2988
  0
VERTEX
  8
Unknown_Line_Type
  70
32
  10
2106146.80
  20
2887739.21
  30
2988
  0
VERTEX
  8
Unknown_Line_Type
  70
32
  10
2106146.31
  20
2887736.49
  30
2988
  0
VERTEX
  8
Unknown_Line_Type
  70
32
  10
2106142.82
  20
2887737.80
  30
2988
  0
VERTEX
  8
Unknown_Line_Type
  70
32
  10
2106142.01
  20
2887738.07
  30
2988
  0
VERTEX
  8
Unknown_Line_Type
  70
32
  10
2106139.65
  20
2887738.89
  30
2988
  0
VERTEX
  8
Unknown_Line_Type
  70
32
  10
2106134.35
  20
2887749.16
  30
2988
  0
VERTEX
  8
Unknown_Line_Type
  70
32
  10
2106126.45
  20
2887746.62
  30
2988
  0
VERTEX
  8
Unknown_Line_Type
  70
32
  10
2106121.13
  20
2887741.89
  30
2988
  0
VERTEX
  8
Unknown_Line_Type
  70
32
  10
2106115.12
  20
2887741.65
  30
2988
  0
VERTEX
  8
Unknown_Line_Type
  70
32
  10
2106114.75
  20
2887733.40
  30
2988
  0
VERTEX
  8
Unknown_Line_Type
  70
32
  10
2106115.58
  20
2887730.78
  30
2988
  0
VERTEX
  8
Unknown_Line_Type
  70
32
  10
2106114.11
  20
2887727.51
  30
2988
  0
VERTEX
  8
Unknown_Line_Type
  70
32
  10
2106108.72
  20
2887716.54
  30
2988
  0
VERTEX
  8
Unknown_Line_Type
  70
32
  10
2106099.20
  20
2887715.48
  30
2988
  0
VERTEX
  8
Unknown_Line_Type
  70
32
  10
2106092.26
  20
2887713.08
  30
2988
  0
VERTEX
  8
Unknown_Line_Type
  70
32
  10
2106085.64
  20
2887711.29
  30
2988
  0
VERTEX
  8
Unknown_Line_Type
  70
32
  10
2106080.34
  20
2887708.78
  30
2988
  0
VERTEX
  8
Unknown_Line_Type
  70
32
  10
2106079.16
  20
2887709.04
  30
2988
  0
VERTEX
  8
Unknown_Line_Type
  70
32
  10
2106072.11
  20
2887707.71
  30
2988
  0
VERTEX
  8
Unknown_Line_Type
  70
32
  10
2106069.34
  20
2887704.65
  30
2988
  0
VERTEX
  8
Unknown_Line_Type
  70
32
  10
2106063.89
  20
2887705.52
  30
2988
  0
VERTEX
  8
Unknown_Line_Type
  70
32
  10
2106065.60
  20
2887712.60
  30
2988
  0
VERTEX
  8
Unknown_Line_Type
  70
32
  10
2106064.63
  20
2887717.86
  30
2988
  0
VERTEX
  8
Unknown_Line_Type
  70
32
  10
2106061.94
  20
2887722.56
  30
2988
  0
VERTEX
  8
Unknown_Line_Type
  70
32
  10
2106058.67
  20
2887726.56
  30
2988
  0
VERTEX
  8
Unknown_Line_Type
  70
32
  10
2106048.01
  20
2887722.19
  30
2988
  0
VERTEX
  8
Unknown_Line_Type
  70
32
  10
2106036.46
  20
2887718.77
  30
2988
  0
VERTEX
  8
Unknown_Line_Type
  70
32
  10
2106029.66
  20
2887718.14
  30
2988
  0
VERTEX
  8
Unknown_Line_Type
  70
32
  10
2106029.75
  20
2887726.63
  30
2988
  0
VERTEX
  8
Unknown_Line_Type
  70
32
  10
2106029.03
  20
2887729.34
  30
2988
  0
VERTEX
  8
Unknown_Line_Type
  70
32
  10
2106028.00
  20
2887729.09
  30
2988
  0
SEQEND
  8
Unknown_Line_Type
  0
POLYLINE
  8
Unknown_Line_Type
  70
8
  66
1
 62
0
 39
0
  0
VERTEX
  8
Unknown_Line_Type
  70
32
  10
2106096.97
  20
2887830.10
  30
2988
  0
VERTEX
  8
Unknown_Line_Type
  70
32
  10
2106096.08
  20
2887833.36
  30
2988
  0
VERTEX
  8
Unknown_Line_Type
  70
32
  10
2106084.97
  20
2887828.83
  30
2988
  0
VERTEX
  8
Unknown_Line_Type
  70
32
  10
2106082.00
  20
2887828.56
  30
2988
  0
VERTEX
  8
Unknown_Line_Type
  70
32
  10
2106079.22
  20
2887828.49
  30
2988
  0
VERTEX
  8
Unknown_Line_Type
  70
32
  10
2106079.56
  20
2887831.35
  30
2988
  0
VERTEX
  8
Unknown_Line_Type
  70
32
  10
2106078.55
  20
2887840.49
  30
2988
  0
VERTEX
  8
Unknown_Line_Type
  70
32
  10
2106077.12
  20
2887840.65
  30
2988
  0
VERTEX
  8
Unknown_Line_Type
  70
32
  10
2106070.57
  20
2887832.71
  30
2988
  0
VERTEX
  8
Unknown_Line_Type
  70
32
  10
2106059.28
  20
2887825.64
  30
2988
  0
VERTEX
  8
Unknown_Line_Type
  70
32
  10
2106056.65
  20
2887822.55
  30
2988
  0
VERTEX
  8
Unknown_Line_Type
  70
32
  10
2106059.11
  20
2887820.79
  30
2988
  0
VERTEX
  8
Unknown_Line_Type
  70
32
  10
2106058.60
  20
2887819.10
  30
2988
  0
VERTEX
  8
Unknown_Line_Type
  70
32
  10
2106059.20
  20
2887818.42
  30
2988
  0
VERTEX
  8
Unknown_Line_Type
  70
32
  10
2106066.85
  20
2887810.08
  30
2988
  0
VERTEX
  8
Unknown_Line_Type
  70
32
  10
2106069.73
  20
2887805.10
  30
2988
  0
VERTEX
  8
Unknown_Line_Type
  70
32
  10
2106074.94
  20
2887800.71
  30
2988
  0
VERTEX
  8
Unknown_Line_Type
  70
32
  10
2106079.75
  20
2887796.33
  30
2988
  0
VERTEX
  8
Unknown_Line_Type
  70
32
  10
2106088.88
  20
2887797.20
  30
2988
  0
VERTEX
  8
Unknown_Line_Type
  70
32
  10
2106090.42
  20
2887797.91
  30
2988
  0
VERTEX
  8
Unknown_Line_Type
  70
32
  10
2106090.82
  20
2887802.01
  30
2988
  0
VERTEX
  8
Unknown_Line_Type
  70
32
  10
2106092.15
  20
2887807.22
  30
2988
  0
VERTEX
  8
Unknown_Line_Type
  70
32
  10
2106092.96
  20
2887812.80
  30
2988
  0
VERTEX
  8
Unknown_Line_Type
  70
32
  10
2106094.41
  20
2887813.52
  30
2988
  0
VERTEX
  8
Unknown_Line_Type
  70
32
  10
2106096.22
  20
2887818.68
  30
2988
  0
VERTEX
  8
Unknown_Line_Type
  70
32
  10
2106099.26
  20
2887822.72
  30
2988
  0
VERTEX
  8
Unknown_Line_Type
  70
32
  10
2106096.97
  20
2887830.10
  30
2988
  0
SEQEND
  8
Unknown_Line_Type
  0
POLYLINE
  8
Unknown_Line_Type
  70
8
  66
1
 62
0
 39
0
  0
VERTEX
  8
Unknown_Line_Type
  70
32
  10
2106028.00
  20
2887671.02
  30
2990
  0
VERTEX
  8
Unknown_Line_Type
  70
32
  10
2106037.04
  20
2887671.11
  30
2990
  0
VERTEX
  8
Unknown_Line_Type
  70
32
  10
2106040.27
  20
2887670.12
  30
2990
  0
VERTEX
  8
Unknown_Line_Type
  70
32
  10
2106045.74
  20
2887672.13
  30
2990
  0
VERTEX
  8
Unknown_Line_Type
  70
32
  10
2106050.37
  20
2887672.28
  30
2990
  0
VERTEX
  8
Unknown_Line_Type
  70
32
  10
2106054.13
  20
2887673.96
  30
2990
  0
VERTEX
  8
Unknown_Line_Type
  70
32
  10
2106065.07
  20
2887672.45
  30
2990
  0
VERTEX
  8
Unknown_Line_Type
  70
32
  10
2106074.06
  20
2887673.50
  30
2990
  0
VERTEX
  8
Unknown_Line_Type
  70
32
  10
2106082.49
  20
2887674.79
  30
2990
  0
VERTEX
  8
Unknown_Line_Type
  70
32
  10
2106088.19
  20
2887672.87
  30
2990
  0
VERTEX
  8
Unknown_Line_Type
  70
32
  10
2106092.63
  20
2887674.51
  30
2990
  0
VERTEX
  8
Unknown_Line_Type
  70
32
  10
2106101.55
  20
2887679.44
  30
2990
  0
VERTEX
  8
Unknown_Line_Type
  70
32
  10
2106107.38
  20
2887678.53
  30
2990
  0
VERTEX
  8
Unknown_Line_Type
  70
32
  10
2106112.75
  20
2887685.36
  30
2990
  0
VERTEX
  8
Unknown_Line_Type
  70
32
  10
2106125.15
  20
2887686.57
  30
2990
  0
VERTEX
  8
Unknown_Line_Type
  70
32
  10
2106132.14
  20
2887692.37
  30
2990
  0
VERTEX
  8
Unknown_Line_Type
  70
32
  10
2106133.82
  20
2887701.41
  30
2990
  0
VERTEX
  8
Unknown_Line_Type
  70
32
  10
2106141.26
  20
2887703.67
  30
2990
  0
VERTEX
  8
Unknown_Line_Type
  70
32
  10
2106147.74
  20
2887709.58
  30
2990
  0
VERTEX
  8
Unknown_Line_Type
  70
32
  10
2106151.09
  20
2887715.19
  30
2990
  0
VERTEX
  8
Unknown_Line_Type
  70
32
  10
2106156.35
  20
2887721.10
  30
2990
  0
VERTEX
  8
Unknown_Line_Type
  70
32
  10
2106159.83
  20
2887719.99
  30
2990
  0
VERTEX
  8
Unknown_Line_Type
  70
32
  10
2106160.76
  20
2887718.92
  30
2990
  0
VERTEX
  8
Unknown_Line_Type
  70
32
  10
2106168.58
  20
2887721.47
  30
2990
  0
VERTEX
  8
Unknown_Line_Type
  70
32
  10
2106167.43
  20
2887724.47
  30
2990
  0
VERTEX
  8
Unknown_Line_Type
  70
32
  10
2106167.38
  20
2887727.17
  30
2990
  0
VERTEX
  8
Unknown_Line_Type
  70
32
  10
2106167.28
  20
2887733.45
  30
2990
  0
VERTEX
  8
Unknown_Line_Type
  70
32
  10
2106171.98
  20
2887739.57
  30
2990
  0
VERTEX
  8
Unknown_Line_Type
  70
32
  10
2106173.95
  20
2887740.97
  30
2990
  0
VERTEX
  8
Unknown_Line_Type
  70
32
  10
2106177.55
  20
2887740.74
  30
2990
  0
VERTEX
  8
Unknown_Line_Type
  70
32
  10
2106180.61
  20
2887743.32
  30
2990
  0
VERTEX
  8
Unknown_Line_Type
  70
32
  10
2106181.64
  20
2887746.86
  30
2990
  0
VERTEX
  8
Unknown_Line_Type
  70
32
  10
2106179.40
  20
2887749.38
  30
2990
  0
VERTEX
  8
Unknown_Line_Type
  70
32
  10
2106177.84
  20
2887754.28
  30
2990
  0
VERTEX
  8
Unknown_Line_Type
  70
32
  10
2106177.94
  20
2887757.31
  30
2990
  0
VERTEX
  8
Unknown_Line_Type
  70
32
  10
2106178.57
  20
2887762.53
  30
2990
  0
VERTEX
  8
Unknown_Line_Type
  70
32
  10
2106182.93
  20
2887765.06
  30
2990
  0
VERTEX
  8
Unknown_Line_Type
  70
32
  10
2106188.77
  20
2887770.89
  30
2990
  0
VERTEX
  8
Unknown_Line_Type
  70
32
  10
2106192.20
  20
2887776.45
  30
2990
  0
VERTEX
  8
Unknown_Line_Type
  70
32
  10
2106188.78
  20
2887784.16
  30
2990
  0
VERTEX
  8
Unknown_Line_Type
  70
32
  10
2106192.79
  20
2887789.92
  30
2990
  0
VERTEX
  8
Unknown_Line_Type
  70
32
  10
2106197.21
  20
2887795.92
  30
2990
  0
VERTEX
  8
Unknown_Line_Type
  70
32
  10
2106192.78
  20
2887796.00
  30
2990
  0
VERTEX
  8
Unknown_Line_Type
  70
32
  10
2106194.38
  20
2887802.95
  30
2990
  0
VERTEX
  8
Unknown_Line_Type
  70
32
  10
2106194.17
  20
2887805.12
  30
2990
  0
VERTEX
  8
Unknown_Line_Type
  70
32
  10
2106195.59
  20
2887812.20
  30
2990
  0
VERTEX
  8
Unknown_Line_Type
  70
32
  10
2106199.49
  20
2887813.05
  30
2990
  0
VERTEX
  8
Unknown_Line_Type
  70
32
  10
2106201.70
  20
2887812.12
  30
2990
  0
VERTEX
  8
Unknown_Line_Type
  70
32
  10
2106205.21
  20
2887808.97
  30
2990
  0
VERTEX
  8
Unknown_Line_Type
  70
32
  10
2106208.43
  20
2887812.36
  30
2990
  0
VERTEX
  8
Unknown_Line_Type
  70
32
  10
2106209.11
  20
2887814.27
  30
2990
  0
VERTEX
  8
Unknown_Line_Type
  70
32
  10
2106216.37
  20
2887823.34
  30
2990
  0
VERTEX
  8
Unknown_Line_Type
  70
32
  10
2106218.05
  20
2887828.56
  30
2990
  0
VERTEX
  8
Unknown_Line_Type
  70
32
  10
2106217.71
  20
2887829.37
  30
2990
  0
VERTEX
  8
Unknown_Line_Type
  70
32
  10
2106220.45
  20
2887838.24
  30
2990
  0
VERTEX
  8
Unknown_Line_Type
  70
32
  10
2106221.70
  20
2887844.63
  30
2990
  0
VERTEX
  8
Unknown_Line_Type
  70
32
  10
2106221.02
  20
2887847.14
  30
2990
  0
VERTEX
  8
Unknown_Line_Type
  70
32
  10
2106220.04
  20
2887851.80
  30
2990
  0
VERTEX
  8
Unknown_Line_Type
  70
32
  10
2106223.78
  20
2887854.86
  30
2990
  0
VERTEX
  8
Unknown_Line_Type
  70
32
  10
2106226.45
  20
2887861.18
  30
2990
  0
VERTEX
  8
Unknown_Line_Type
  70
32
  10
2106225.76
  20
2887863.20
  30
2990
  0
VERTEX
  8
Unknown_Line_Type
  70
32
  10
2106226.49
  20
2887864.86
  30
2990
  0
VERTEX
  8
Unknown_Line_Type
  70
32
  10
2106225.62
  20
2887869.92
  30
2990
  0
VERTEX
  8
Unknown_Line_Type
  70
32
  10
2106221.47
  20
2887866.85
  30
2990
  0
VERTEX
  8
Unknown_Line_Type
  70
32
  10
2106219.76
  20
2887865.88
  30
2990
  0
VERTEX
  8
Unknown_Line_Type
  70
32
  10
2106215.21
  20
2887864.76
  30
2990
  0
VERTEX
  8
Unknown_Line_Type
  70
32
  10
2106212.96
  20
2887863.56
  30
2990
  0
VERTEX
  8
Unknown_Line_Type
  70
32
  10
2106211.88
  20
2887864.47
  30
2990
  0
VERTEX
  8
Unknown_Line_Type
  70
32
  10
2106208.68
  20
2887865.86
  30
2990
  0
VERTEX
  8
Unknown_Line_Type
  70
32
  10
2106212.17
  20
2887867.92
  30
2990
  0
VERTEX
  8
Unknown_Line_Type
  70
32
  10
2106215.31
  20
2887871.03
  30
2990
  0
VERTEX
  8
Unknown_Line_Type
  70
32
  10
2106215.20
  20
2887880.27
  30
2990
  0
VERTEX
  8
Unknown_Line_Type
  70
32
  10
2106215.51
  20
2887885.02
  30
2990
  0
VERTEX
  8
Unknown_Line_Type
  70
32
  10
2106217.87
  20
2887887.58
  30
2990
  0
VERTEX
  8
Unknown_Line_Type
  70
32
  10
2106224.61
  20
2887890.80
  30
2990
  0
VERTEX
  8
Unknown_Line_Type
  70
32
  10
2106226.16
  20
2887898.39
  30
2990
  0
VERTEX
  8
Unknown_Line_Type
  70
32
  10
2106231.27
  20
2887900.49
  30
2990
  0
VERTEX
  8
Unknown_Line_Type
  70
32
  10
2106235.23
  20
2887901.54
  30
2990
  0
VERTEX
  8
Unknown_Line_Type
  70
32
  10
2106235.89
  20
2887905.00
  30
2990
  0
VERTEX
  8
Unknown_Line_Type
  70
32
  10
2106239.14
  20
2887906.69
  30
2990
  0
VERTEX
  8
Unknown_Line_Type
  70
32
  10
2106243.12
  20
2887907.52
  30
2990
  0
VERTEX
  8
Unknown_Line_Type
  70
32
  10
2106244.02
  20
2887911.57
  30
2990
  0
VERTEX
  8
Unknown_Line_Type
  70
32
  10
2106244.40
  20
2887914.88
  30
2990
  0
VERTEX
  8
Unknown_Line_Type
  70
32
  10
2106244.40
  20
2887922.86
  30
2990
  0
VERTEX
  8
Unknown_Line_Type
  70
32
  10
2106244.41
  20
2887930.40
  30
2990
  0
VERTEX
  8
Unknown_Line_Type
  70
32
  10
2106242.24
  20
2887934.08
  30
2990
  0
VERTEX
  8
Unknown_Line_Type
  70
32
  10
2106239.60
  20
2887938.55
  30
2990
  0
VERTEX
  8
Unknown_Line_Type
  70
32
  10
2106238.61
  20
2887941.86
  30
2990
  0
VERTEX
  8
Unknown_Line_Type
  70
32
  10
2106238.47
  20
2887945.42
  30
2990
  0
VERTEX
  8
Unknown_Line_Type
  70
32
  10
2106232.07
  20
2887942.87
  30
2990
  0
VERTEX
  8
Unknown_Line_Type
  70
32
  10
2106228.88
  20
2887938.06
  30
2990
  0
VERTEX
  8
Unknown_Line_Type
  70
32
  10
2106224.95
  20
2887935.11
  30
2990
  0
VERTEX
  8
Unknown_Line_Type
  70
32
  10
2106219.14
  20
2887930.49
  30
2990
  0
VERTEX
  8
Unknown_Line_Type
  70
32
  10
2106217.16
  20
2887927.96
  30
2990
  0
VERTEX
  8
Unknown_Line_Type
  70
32
  10
2106216.32
  20
2887927.41
  30
2990
  0
VERTEX
  8
Unknown_Line_Type
  70
32
  10
2106211.80
  20
2887924.88
  30
2990
  0
VERTEX
  8
Unknown_Line_Type
  70
32
  10
2106208.25
  20
2887923.62
  30
2990
  0
VERTEX
  8
Unknown_Line_Type
  70
32
  10
2106207.67
  20
2887923.90
  30
2990
  0
VERTEX
  8
Unknown_Line_Type
  70
32
  10
2106202.49
  20
2887924.41
  30
2990
  0
VERTEX
  8
Unknown_Line_Type
  70
32
  10
2106199.69
  20
2887925.96
  30
2990
  0
VERTEX
  8
Unknown_Line_Type
  70
32
  10
2106191.11
  20
2887931.22
  30
2990
  0
VERTEX
  8
Unknown_Line_Type
  70
32
  10
2106190.67
  20
2887935.46
  30
2990
  0
VERTEX
  8
Unknown_Line_Type
  70
32
  10
2106191.46
  20
2887941.84
  30
2990
  0
VERTEX
  8
Unknown_Line_Type
  70
32
  10
2106195.67
  20
2887947.90
  30
2990
  0
VERTEX
  8
Unknown_Line_Type
  70
32
  10
2106195.76
  20
2887948.65
  30
2990
  0
VERTEX
  8
Unknown_Line_Type
  70
32
  10
2106197.86
  20
2887953.81
  30
2990
  0
VERTEX
  8
Unknown_Line_Type
  70
32
  10
2106200.43
  20
2887961.35
  30
2990
  0
VERTEX
  8
Unknown_Line_Type
  70
32
  10
2106200.66
  20
2887962.30
  30
2990
  0
VERTEX
  8
Unknown_Line_Type
  70
32
  10
2106200.39
  20
2887966.65
  30
2990
  0
VERTEX
  8
Unknown_Line_Type
  70
32
  10
2106201.82
  20
2887975.91
  30
2990
  0
VERTEX
  8
Unknown_Line_Type
  70
32
  10
2106203.41
  20
2887979.39
  30
2990
  0
VERTEX
  8
Unknown_Line_Type
  70
32
  10
2106199.61
  20
2887982.22
  30
2990
  0
VERTEX
  8
Unknown_Line_Type
  70
32
  10
2106195.37
  20
2887986.05
  30
2990
  0
VERTEX
  8
Unknown_Line_Type
  70
32
  10
2106185.07
  20
2887987.35
  30
2990
  0
VERTEX
  8
Unknown_Line_Type
  70
32
  10
2106184.48
  20
2887980.37
  30
2990
  0
VERTEX
  8
Unknown_Line_Type
  70
32
  10
2106185.30
  20
2887972.51
  30
2990
  0
VERTEX
  8
Unknown_Line_Type
  70
32
  10
2106177.35
  20
2887967.81
  30
2990
  0
VERTEX
  8
Unknown_Line_Type
  70
32
  10
2106171.60
  20
2887964.33
  30
2990
  0
VERTEX
  8
Unknown_Line_Type
  70
32
  10
2106170.58
  20
2887960.25
  30
2990
  0
VERTEX
  8
Unknown_Line_Type
  70
32
  10
2106161.18
  20
2887959.39
  30
2990
  0
VERTEX
  8
Unknown_Line_Type
  70
32
  10
2106158.66
  20
2887956.37
  30
2990
  0
VERTEX
  8
Unknown_Line_Type
  70
32
  10
2106155.06
  20
2887949.92
  30
2990
  0
VERTEX
  8
Unknown_Line_Type
  70
32
  10
2106152.62
  20
2887946.35
  30
2990
  0
VERTEX
  8
Unknown_Line_Type
  70
32
  10
2106151.33
  20
2887943.33
  30
2990
  0
VERTEX
  8
Unknown_Line_Type
  70
32
  10
2106150.10
  20
2887941.99
  30
2990
  0
VERTEX
  8
Unknown_Line_Type
  70
32
  10
2106145.21
  20
2887935.17
  30
2990
  0
VERTEX
  8
Unknown_Line_Type
  70
32
  10
2106142.58
  20
2887933.69
  30
2990
  0
VERTEX
  8
Unknown_Line_Type
  70
32
  10
2106141.12
  20
2887929.28
  30
2990
  0
VERTEX
  8
Unknown_Line_Type
  70
32
  10
2106134.49
  20
2887924.57
  30
2990
  0
VERTEX
  8
Unknown_Line_Type
  70
32
  10
2106130.35
  20
2887921.36
  30
2990
  0
VERTEX
  8
Unknown_Line_Type
  70
32
  10
2106128.07
  20
2887918.70
  30
2990
  0
VERTEX
  8
Unknown_Line_Type
  70
32
  10
2106131.09
  20
2887912.29
  30
2990
  0
VERTEX
  8
Unknown_Line_Type
  70
32
  10
2106133.40
  20
2887908.53
  30
2990
  0
VERTEX
  8
Unknown_Line_Type
  70
32
  10
2106131.94
  20
2887907.17
  30
2990
  0
VERTEX
  8
Unknown_Line_Type
  70
32
  10
2106125.34
  20
2887907.39
  30
2990
  0
VERTEX
  8
Unknown_Line_Type
  70
32
  10
2106116.55
  20
2887908.36
  30
2990
  0
VERTEX
  8
Unknown_Line_Type
  70
32
  10
2106113.47
  20
2887899.26
  30
2990
  0
VERTEX
  8
Unknown_Line_Type
  70
32
  10
2106115.17
  20
2887894.30
  30
2990
  0
VERTEX
  8
Unknown_Line_Type
  70
32
  10
2106111.51
  20
2887893.68
  30
2990
  0
VERTEX
  8
Unknown_Line_Type
  70
32
  10
2106109.62
  20
2887894.69
  30
2990
  0
VERTEX
  8
Unknown_Line_Type
  70
32
  10
2106104.61
  20
2887896.59
  30
2990
  0
VERTEX
  8
Unknown_Line_Type
  70
32
  10
2106095.21
  20
2887901.83
  30
2990
  0
VERTEX
  8
Unknown_Line_Type
  70
32
  10
2106089.79
  20
2887901.87
  30
2990
  0
VERTEX
  8
Unknown_Line_Type
  70
32
  10
2106082.49
  20
2887904.04
  30
2990
  0
VERTEX
  8
Unknown_Line_Type
  70
32
  10
2106078.44
  20
2887905.64
  30
2990
  0
VERTEX
  8
Unknown_Line_Type
  70
32
  10
2106073.29
  20
2887906.65
  30
2990
  0
VERTEX
  8
Unknown_Line_Type
  70
32
  10
2106070.82
  20
2887906.99
  30
2990
  0
VERTEX
  8
Unknown_Line_Type
  70
32
  10
2106062.18
  20
2887910.86
  30
2990
  0
VERTEX
  8
Unknown_Line_Type
  70
32
  10
2106059.63
  20
2887913.31
  30
2990
  0
VERTEX
  8
Unknown_Line_Type
  70
32
  10
2106058.16
  20
2887914.63
  30
2990
  0
VERTEX
  8
Unknown_Line_Type
  70
32
  10
2106049.29
  20
2887917.21
  30
2990
  0
VERTEX
  8
Unknown_Line_Type
  70
32
  10
2106045.24
  20
2887920.62
  30
2990
  0
VERTEX
  8
Unknown_Line_Type
  70
32
  10
2106044.21
  20
2887921.35
  30
2990
  0
VERTEX
  8
Unknown_Line_Type
  70
32
  10
2106039.48
  20
2887921.26
  30
2990
  0
VERTEX
  8
Unknown_Line_Type
  70
32
  10
2106038.47
  20
2887925.61
  30
2990
  0
VERTEX
  8
Unknown_Line_Type
  70
32
  10
2106034.12
  20
2887927.17
  30
2990
  0
VERTEX
  8
Unknown_Line_Type
  70
32
  10
2106032.17
  20
2887929.62
  30
2990
  0
VERTEX
  8
Unknown_Line_Type
  70
32
  10
2106030.21
  20
2887931.69
  30
2990
  0
VERTEX
  8
Unknown_Line_Type
  70
32
  10
2106028.00
  20
2887936.25
  30
2990
  0
SEQEND
  8
Unknown_Line_Type
  0
POLYLINE
  8
Unknown_Line_Type
  70
8
  66
1
 62
0
 39
0
  0
VERTEX
  8
Unknown_Line_Type
  70
32
  10
2106042.38
  20
2887635.00
  30
2992
  0
VERTEX
  8
Unknown_Line_Type
  70
32
  10
2106042.90
  20
2887635.50
  30
2992
  0
VERTEX
  8
Unknown_Line_Type
  70
32
  10
2106048.03
  20
2887638.74
  30
2992
  0
VERTEX
  8
Unknown_Line_Type
  70
32
  10
2106056.45
  20
2887647.91
  30
2992
  0
VERTEX
  8
Unknown_Line_Type
  70
32
  10
2106059.99
  20
2887647.09
  30
2992
  0
VERTEX
  8
Unknown_Line_Type
  70
32
  10
2106065.49
  20
2887648.01
  30
2992
  0
VERTEX
  8
Unknown_Line_Type
  70
32
  10
2106068.01
  20
2887647.42
  30
2992
  0
VERTEX
  8
Unknown_Line_Type
  70
32
  10
2106073.08
  20
2887650.48
  30
2992
  0
VERTEX
  8
Unknown_Line_Type
  70
32
  10
2106078.25
  20
2887651.10
  30
2992
  0
VERTEX
  8
Unknown_Line_Type
  70
32
  10
2106081.45
  20
2887652.03
  30
2992
  0
VERTEX
  8
Unknown_Line_Type
  70
32
  10
2106088.91
  20
2887650.54
  30
2992
  0
VERTEX
  8
Unknown_Line_Type
  70
32
  10
2106096.90
  20
2887643.10
  30
2992
  0
VERTEX
  8
Unknown_Line_Type
  70
32
  10
2106102.17
  20
2887647.74
  30
2992
  0
VERTEX
  8
Unknown_Line_Type
  70
32
  10
2106105.57
  20
2887650.35
  30
2992
  0
VERTEX
  8
Unknown_Line_Type
  70
32
  10
2106108.64
  20
2887648.49
  30
2992
  0
VERTEX
  8
Unknown_Line_Type
  70
32
  10
2106114.83
  20
2887645.92
  30
2992
  0
VERTEX
  8
Unknown_Line_Type
  70
32
  10
2106122.72
  20
2887652.28
  30
2992
  0
VERTEX
  8
Unknown_Line_Type
  70
32
  10
2106128.02
  20
2887652.48
  30
2992
  0
VERTEX
  8
Unknown_Line_Type
  70
32
  10
2106134.00
  20
2887658.64
  30
2992
  0
VERTEX
  8
Unknown_Line_Type
  70
32
  10
2106134.70
  20
2887662.29
  30
2992
  0
VERTEX
  8
Unknown_Line_Type
  70
32
  10
2106138.09
  20
2887663.75
  30
2992
  0
VERTEX
  8
Unknown_Line_Type
  70
32
  10
2106139.66
  20
2887667.53
  30
2992
  0
VERTEX
  8
Unknown_Line_Type
  70
32
  10
2106144.10
  20
2887669.23
  30
2992
  0
VERTEX
  8
Unknown_Line_Type
  70
32
  10
2106143.65
  20
2887672.59
  30
2992
  0
VERTEX
  8
Unknown_Line_Type
  70
32
  10
2106149.14
  20
2887676.71
  30
2992
  0
VERTEX
  8
Unknown_Line_Type
  70
32
  10
2106156.62
  20
2887681.70
  30
2992
  0
VERTEX
  8
Unknown_Line_Type
  70
32
  10
2106167.51
  20
2887684.65
  30
2992
  0
VERTEX
  8
Unknown_Line_Type
  70
32
  10
2106168.05
  20
2887685.72
  30
2992
  0
VERTEX
  8
Unknown_Line_Type
  70
32
  10
2106169.82
  20
2887689.97
  30
2992
  0
VERTEX
  8
Unknown_Line_Type
  70
32
  10
2106175.11
  20
2887693.79
  30
2992
  0
VERTEX
  8
Unknown_Line_Type
  70
32
  10
2106182.46
  20
2887688.63
  30
2992
  0
VERTEX
  8
Unknown_Line_Type
  70
32
  10
2106187.74
  20
2887689.21
  30
2992
  0
VERTEX
  8
Unknown_Line_Type
  70
32
  10
2106187.61
  20
2887692.00
  30
2992
  0
VERTEX
  8
Unknown_Line_Type
  70
32
  10
2106187.22
  20
2887692.80
  30
2992
  0
VERTEX
  8
Unknown_Line_Type
  70
32
  10
2106189.85
  20
2887695.65
  30
2992
  0
VERTEX
  8
Unknown_Line_Type
  70
32
  10
2106188.98
  20
2887705.18
  30
2992
  0
VERTEX
  8
Unknown_Line_Type
  70
32
  10
2106190.92
  20
2887711.37
  30
2992
  0
VERTEX
  8
Unknown_Line_Type
  70
32
  10
2106192.41
  20
2887713.13
  30
2992
  0
VERTEX
  8
Unknown_Line_Type
  70
32
  10
2106189.76
  20
2887717.17
  30
2992
  0
VERTEX
  8
Unknown_Line_Type
  70
32
  10
2106188.38
  20
2887725.71
  30
2992
  0
VERTEX
  8
Unknown_Line_Type
  70
32
  10
2106192.72
  20
2887729.67
  30
2992
  0
VERTEX
  8
Unknown_Line_Type
  70
32
  10
2106194.68
  20
2887730.99
  30
2992
  0
VERTEX
  8
Unknown_Line_Type
  70
32
  10
2106193.10
  20
2887735.68
  30
2992
  0
VERTEX
  8
Unknown_Line_Type
  70
32
  10
2106192.35
  20
2887735.54
  30
2992
  0
VERTEX
  8
Unknown_Line_Type
  70
32
  10
2106192.03
  20
2887737.14
  30
2992
  0
VERTEX
  8
Unknown_Line_Type
  70
32
  10
2106193.03
  20
2887741.37
  30
2992
  0
VERTEX
  8
Unknown_Line_Type
  70
32
  10
2106194.20
  20
2887742.15
  30
2992
  0
VERTEX
  8
Unknown_Line_Type
  70
32
  10
2106198.20
  20
2887745.04
  30
2992
  0
VERTEX
  8
Unknown_Line_Type
  70
32
  10
2106200.78
  20
2887752.54
  30
2992
  0
VERTEX
  8
Unknown_Line_Type
  70
32
  10
2106203.38
  20
2887753.13
  30
2992
  0
VERTEX
  8
Unknown_Line_Type
  70
32
  10
2106205.60
  20
2887760.52
  30
2992
  0
VERTEX
  8
Unknown_Line_Type
  70
32
  10
2106209.98
  20
2887766.40
  30
2992
  0
VERTEX
  8
Unknown_Line_Type
  70
32
  10
2106214.92
  20
2887772.35
  30
2992
  0
VERTEX
  8
Unknown_Line_Type
  70
32
  10
2106215.09
  20
2887773.32
  30
2992
  0
VERTEX
  8
Unknown_Line_Type
  70
32
  10
2106216.91
  20
2887780.09
  30
2992
  0
VERTEX
  8
Unknown_Line_Type
  70
32
  10
2106215.34
  20
2887789.05
  30
2992
  0
VERTEX
  8
Unknown_Line_Type
  70
32
  10
2106215.51
  20
2887795.36
  30
2992
  0
VERTEX
  8
Unknown_Line_Type
  70
32
  10
2106220.38
  20
2887800.10
  30
2992
  0
VERTEX
  8
Unknown_Line_Type
  70
32
  10
2106223.81
  20
2887800.89
  30
2992
  0
VERTEX
  8
Unknown_Line_Type
  70
32
  10
2106224.50
  20
2887803.49
  30
2992
  0
VERTEX
  8
Unknown_Line_Type
  70
32
  10
2106226.66
  20
2887805.80
  30
2992
  0
VERTEX
  8
Unknown_Line_Type
  70
32
  10
2106227.90
  20
2887812.12
  30
2992
  0
VERTEX
  8
Unknown_Line_Type
  70
32
  10
2106226.85
  20
2887813.93
  30
2992
  0
VERTEX
  8
Unknown_Line_Type
  70
32
  10
2106225.46
  20
2887815.42
  30
2992
  0
VERTEX
  8
Unknown_Line_Type
  70
32
  10
2106225.34
  20
2887821.45
  30
2992
  0
VERTEX
  8
Unknown_Line_Type
  70
32
  10
2106226.67
  20
2887828.75
  30
2992
  0
VERTEX
  8
Unknown_Line_Type
  70
32
  10
2106226.58
  20
2887829.64
  30
2992
  0
VERTEX
  8
Unknown_Line_Type
  70
32
  10
2106226.74
  20
2887831.48
  30
2992
  0
VERTEX
  8
Unknown_Line_Type
  70
32
  10
2106229.15
  20
2887837.64
  30
2992
  0
VERTEX
  8
Unknown_Line_Type
  70
32
  10
2106231.40
  20
2887839.94
  30
2992
  0
VERTEX
  8
Unknown_Line_Type
  70
32
  10
2106233.08
  20
2887841.49
  30
2992
  0
VERTEX
  8
Unknown_Line_Type
  70
32
  10
2106232.83
  20
2887841.95
  30
2992
  0
VERTEX
  8
Unknown_Line_Type
  70
32
  10
2106236.15
  20
2887856.92
  30
2992
  0
VERTEX
  8
Unknown_Line_Type
  70
32
  10
2106238.37
  20
2887860.65
  30
2992
  0
VERTEX
  8
Unknown_Line_Type
  70
32
  10
2106237.81
  20
2887862.67
  30
2992
  0
VERTEX
  8
Unknown_Line_Type
  70
32
  10
2106242.57
  20
2887868.24
  30
2992
  0
VERTEX
  8
Unknown_Line_Type
  70
32
  10
2106243.70
  20
2887876.60
  30
2992
  0
VERTEX
  8
Unknown_Line_Type
  70
32
  10
2106243.49
  20
2887877.18
  30
2992
  0
VERTEX
  8
Unknown_Line_Type
  70
32
  10
2106246.82
  20
2887882.45
  30
2992
  0
VERTEX
  8
Unknown_Line_Type
  70
32
  10
2106249.37
  20
2887884.16
  30
2992
  0
VERTEX
  8
Unknown_Line_Type
  70
32
  10
2106251.11
  20
2887889.40
  30
2992
  0
VERTEX
  8
Unknown_Line_Type
  70
32
  10
2106252.40
  20
2887896.15
  30
2992
  0
VERTEX
  8
Unknown_Line_Type
  70
32
  10
2106252.31
  20
2887899.83
  30
2992
  0
VERTEX
  8
Unknown_Line_Type
  70
32
  10
2106251.98
  20
2887903.65
  30
2992
  0
VERTEX
  8
Unknown_Line_Type
  70
32
  10
2106251.95
  20
2887909.85
  30
2992
  0
VERTEX
  8
Unknown_Line_Type
  70
32
  10
2106252.65
  20
2887913.60
  30
2992
  0
VERTEX
  8
Unknown_Line_Type
  70
32
  10
2106253.48
  20
2887917.07
  30
2992
  0
VERTEX
  8
Unknown_Line_Type
  70
32
  10
2106254.55
  20
2887918.84
  30
2992
  0
VERTEX
  8
Unknown_Line_Type
  70
32
  10
2106254.87
  20
2887923.32
  30
2992
  0
VERTEX
  8
Unknown_Line_Type
  70
32
  10
2106254.89
  20
2887937.06
  30
2992
  0
VERTEX
  8
Unknown_Line_Type
  70
32
  10
2106255.57
  20
2887942.50
  30
2992
  0
VERTEX
  8
Unknown_Line_Type
  70
32
  10
2106254.68
  20
2887948.04
  30
2992
  0
VERTEX
  8
Unknown_Line_Type
  70
32
  10
2106255.25
  20
2887954.93
  30
2992
  0
VERTEX
  8
Unknown_Line_Type
  70
32
  10
2106257.86
  20
2887959.66
  30
2992
  0
VERTEX
  8
Unknown_Line_Type
  70
32
  10
2106260.10
  20
2887961.08
  30
2992
  0
VERTEX
  8
Unknown_Line_Type
  70
32
  10
2106259.33
  20
2887964.49
  30
2992
  0
VERTEX
  8
Unknown_Line_Type
  70
32
  10
2106260.70
  20
2887968.53
  30
2992
  0
VERTEX
  8
Unknown_Line_Type
  70
32
  10
2106261.04
  20
2887973.08
  30
2992
  0
VERTEX
  8
Unknown_Line_Type
  70
32
  10
2106260.40
  20
2887976.35
  30
2992
  0
VERTEX
  8
Unknown_Line_Type
  70
32
  10
2106261.31
  20
2887982.06
  30
2992
  0
VERTEX
  8
Unknown_Line_Type
  70
32
  10
2106260.82
  20
2887989.01
  30
2992
  0
VERTEX
  8
Unknown_Line_Type
  70
32
  10
2106259.45
  20
2887998.61
  30
2992
  0
VERTEX
  8
Unknown_Line_Type
  70
32
  10
2106259.83
  20
2888004.10
  30
2992
  0
VERTEX
  8
Unknown_Line_Type
  70
32
  10
2106259.25
  20
2888010.33
  30
2992
  0
VERTEX
  8
Unknown_Line_Type
  70
32
  10
2106257.89
  20
2888020.60
  30
2992
  0
VERTEX
  8
Unknown_Line_Type
  70
32
  10
2106255.92
  20
2888026.96
  30
2992
  0
VERTEX
  8
Unknown_Line_Type
  70
32
  10
2106255.47
  20
2888029.03
  30
2992
  0
VERTEX
  8
Unknown_Line_Type
  70
32
  10
2106251.84
  20
2888040.92
  30
2992
  0
VERTEX
  8
Unknown_Line_Type
  70
32
  10
2106250.47
  20
2888044.95
  30
2992
  0
VERTEX
  8
Unknown_Line_Type
  70
32
  10
2106250.26
  20
2888046.30
  30
2992
  0
VERTEX
  8
Unknown_Line_Type
  70
32
  10
2106249.81
  20
2888048.56
  30
2992
  0
VERTEX
  8
Unknown_Line_Type
  70
32
  10
2106249.35
  20
2888055.57
  30
2992
  0
VERTEX
  8
Unknown_Line_Type
  70
32
  10
2106249.33
  20
2888058.43
  30
2992
  0
VERTEX
  8
Unknown_Line_Type
  70
32
  10
2106248.49
  20
2888061.17
  30
2992
  0
VERTEX
  8
Unknown_Line_Type
  70
32
  10
2106233.01
  20
2888068.46
  30
2992
  0
VERTEX
  8
Unknown_Line_Type
  70
32
  10
2106230.08
  20
2888069.69
  30
2992
  0
SEQEND
  8
Unknown_Line_Type
  0
POLYLINE
  8
Unknown_Line_Type
  70
8
  66
1
 62
0
 39
0
  0
VERTEX
  8
Unknown_Line_Type
  70
32
  10
2106168.58
  20
2888030.36
  30
2992
  0
VERTEX
  8
Unknown_Line_Type
  70
32
  10
2106167.15
  20
2888024.80
  30
2992
  0
VERTEX
  8
Unknown_Line_Type
  70
32
  10
2106167.14
  20
2888019.77
  30
2992
  0
VERTEX
  8
Unknown_Line_Type
  70
32
  10
2106166.90
  20
2888015.51
  30
2992
  0
VERTEX
  8
Unknown_Line_Type
  70
32
  10
2106167.38
  20
2888008.58
  30
2992
  0
VERTEX
  8
Unknown_Line_Type
  70
32
  10
2106166.03
  20
2888007.57
  30
2992
  0
VERTEX
  8
Unknown_Line_Type
  70
32
  10
2106165.30
  20
2888005.89
  30
2992
  0
VERTEX
  8
Unknown_Line_Type
  70
32
  10
2106164.55
  20
2887999.10
  30
2992
  0
VERTEX
  8
Unknown_Line_Type
  70
32
  10
2106164.52
  20
2887994.71
  30
2992
  0
VERTEX
  8
Unknown_Line_Type
  70
32
  10
2106162.16
  20
2887989.88
  30
2992
  0
VERTEX
  8
Unknown_Line_Type
  70
32
  10
2106159.13
  20
2887982.51
  30
2992
  0
VERTEX
  8
Unknown_Line_Type
  70
32
  10
2106159.19
  20
2887976.92
  30
2992
  0
VERTEX
  8
Unknown_Line_Type
  70
32
  10
2106157.81
  20
2887971.64
  30
2992
  0
VERTEX
  8
Unknown_Line_Type
  70
32
  10
2106155.89
  20
2887969.00
  30
2992
  0
VERTEX
  8
Unknown_Line_Type
  70
32
  10
2106155.84
  20
2887967.72
  30
2992
  0
VERTEX
  8
Unknown_Line_Type
  70
32
  10
2106154.21
  20
2887960.92
  30
2992
  0
VERTEX
  8
Unknown_Line_Type
  70
32
  10
2106149.58
  20
2887955.34
  30
2992
  0
VERTEX
  8
Unknown_Line_Type
  70
32
  10
2106149.34
  20
2887954.04
  30
2992
  0
VERTEX
  8
Unknown_Line_Type
  70
32
  10
2106146.75
  20
2887947.99
  30
2992
  0
VERTEX
  8
Unknown_Line_Type
  70
32
  10
2106141.69
  20
2887942.47
  30
2992
  0
VERTEX
  8
Unknown_Line_Type
  70
32
  10
2106139.83
  20
2887939.87
  30
2992
  0
VERTEX
  8
Unknown_Line_Type
  70
32
  10
2106136.50
  20
2887938.00
  30
2992
  0
VERTEX
  8
Unknown_Line_Type
  70
32
  10
2106134.55
  20
2887936.90
  30
2992
  0
VERTEX
  8
Unknown_Line_Type
  70
32
  10
2106129.37
  20
2887934.62
  30
2992
  0
VERTEX
  8
Unknown_Line_Type
  70
32
  10
2106124.59
  20
2887930.78
  30
2992
  0
VERTEX
  8
Unknown_Line_Type
  70
32
  10
2106121.90
  20
2887927.78
  30
2992
  0
VERTEX
  8
Unknown_Line_Type
  70
32
  10
2106118.03
  20
2887922.71
  30
2992
  0
VERTEX
  8
Unknown_Line_Type
  70
32
  10
2106112.27
  20
2887917.52
  30
2992
  0
VERTEX
  8
Unknown_Line_Type
  70
32
  10
2106108.69
  20
2887914.19
  30
2992
  0
VERTEX
  8
Unknown_Line_Type
  70
32
  10
2106102.29
  20
2887911.62
  30
2992
  0
VERTEX
  8
Unknown_Line_Type
  70
32
  10
2106099.72
  20
2887911.67
  30
2992
  0
VERTEX
  8
Unknown_Line_Type
  70
32
  10
2106091.76
  20
2887913.26
  30
2992
  0
VERTEX
  8
Unknown_Line_Type
  70
32
  10
2106086.93
  20
2887913.30
  30
2992
  0
VERTEX
  8
Unknown_Line_Type
  70
32
  10
2106085.01
  20
2887913.87
  30
2992
  0
VERTEX
  8
Unknown_Line_Type
  70
32
  10
2106081.35
  20
2887915.32
  30
2992
  0
VERTEX
  8
Unknown_Line_Type
  70
32
  10
2106078.08
  20
2887916.24
  30
2992
  0
VERTEX
  8
Unknown_Line_Type
  70
32
  10
2106075.74
  20
2887915.67
  30
2992
  0
VERTEX
  8
Unknown_Line_Type
  70
32
  10
2106072.68
  20
2887916.04
  30
2992
  0
VERTEX
  8
Unknown_Line_Type
  70
32
  10
2106068.65
  20
2887919.82
  30
2992
  0
VERTEX
  8
Unknown_Line_Type
  70
32
  10
2106065.01
  20
2887925.18
  30
2992
  0
VERTEX
  8
Unknown_Line_Type
  70
32
  10
2106061.01
  20
2887924.25
  30
2992
  0
VERTEX
  8
Unknown_Line_Type
  70
32
  10
2106059.22
  20
2887926.14
  30
2992
  0
VERTEX
  8
Unknown_Line_Type
  70
32
  10
2106058.11
  20
2887927.15
  30
2992
  0
VERTEX
  8
Unknown_Line_Type
  70
32
  10
2106054.31
  20
2887928.49
  30
2992
  0
VERTEX
  8
Unknown_Line_Type
  70
32
  10
2106047.74
  20
2887934.20
  30
2992
  0
VERTEX
  8
Unknown_Line_Type
  70
32
  10
2106046.14
  20
2887935.53
  30
2992
  0
VERTEX
  8
Unknown_Line_Type
  70
32
  10
2106043.84
  20
2887937.45
  30
2992
  0
VERTEX
  8
Unknown_Line_Type
  70
32
  10
2106040.12
  20
2887940.65
  30
2992
  0
VERTEX
  8
Unknown_Line_Type
  70
32
  10
2106038.64
  20
2887942.71
  30
2992
  0
VERTEX
  8
Unknown_Line_Type
  70
32
  10
2106035.63
  20
2887945.34
  30
2992
  0
SEQEND
  8
Unknown_Line_Type
  0
POLYLINE
  8
Unknown_Line_Type
  70
8
  66
1
 62
0
 39
0
  0
VERTEX
  8
Unknown_Line_Type
  70
32
  10
2106234.72
  20
2887991.02
  30
2992
  0
VERTEX
  8
Unknown_Line_Type
  70
32
  10
2106235.51
  20
2887995.23
  30
2992
  0
VERTEX
  8
Unknown_Line_Type
  70
32
  10
2106235.16
  20
2887998.67
  30
2992
  0
VERTEX
  8
Unknown_Line_Type
  70
32
  10
2106235.41
  20
2888000.68
  30
2992
  0
VERTEX
  8
Unknown_Line_Type
  70
32
  10
2106232.50
  20
2888005.23
  30
2992
  0
VERTEX
  8
Unknown_Line_Type
  70
32
  10
2106222.95
  20
2888004.23
  30
2992
  0
VERTEX
  8
Unknown_Line_Type
  70
32
  10
2106223.58
  20
2887996.77
  30
2992
  0
VERTEX
  8
Unknown_Line_Type
  70
32
  10
2106222.32
  20
2887993.36
  30
2992
  0
VERTEX
  8
Unknown_Line_Type
  70
32
  10
2106225.35
  20
2887987.81
  30
2992
  0
VERTEX
  8
Unknown_Line_Type
  70
32
  10
2106223.40
  20
2887983.11
  30
2992
  0
VERTEX
  8
Unknown_Line_Type
  70
32
  10
2106227.94
  20
2887979.46
  30
2992
  0
VERTEX
  8
Unknown_Line_Type
  70
32
  10
2106232.71
  20
2887975.44
  30
2992
  0
VERTEX
  8
Unknown_Line_Type
  70
32
  10
2106234.35
  20
2887979.10
  30
2992
  0
VERTEX
  8
Unknown_Line_Type
  70
32
  10
2106234.73
  20
2887983.07
  30
2992
  0
VERTEX
  8
Unknown_Line_Type
  70
32
  10
2106235.36
  20
2887985.54
  30
2992
  0
VERTEX
  8
Unknown_Line_Type
  70
32
  10
2106234.72
  20
2887991.02
  30
2992
  0
SEQEND
  8
Unknown_Line_Type
  0
POLYLINE
  8
Unknown_Line_Type
  70
8
  66
1
 62
0
 39
0
  0
VERTEX
  8
Unknown_Line_Type
  70
32
  10
2106151.84
  20
2887635.00
  30
2994
  0
VERTEX
  8
Unknown_Line_Type
  70
32
  10
2106152.91
  20
2887637.09
  30
2994
  0
VERTEX
  8
Unknown_Line_Type
  70
32
  10
2106153.79
  20
2887643.19
  30
2994
  0
VERTEX
  8
Unknown_Line_Type
  70
32
  10
2106158.91
  20
2887644.31
  30
2994
  0
VERTEX
  8
Unknown_Line_Type
  70
32
  10
2106166.31
  20
2887642.14
  30
2994
  0
VERTEX
  8
Unknown_Line_Type
  70
32
  10
2106167.61
  20
2887645.06
  30
2994
  0
VERTEX
  8
Unknown_Line_Type
  70
32
  10
2106171.34
  20
2887656.51
  30
2994
  0
VERTEX
  8
Unknown_Line_Type
  70
32
  10
2106181.95
  20
2887661.41
  30
2994
  0
VERTEX
  8
Unknown_Line_Type
  70
32
  10
2106184.77
  20
2887661.75
  30
2994
  0
VERTEX
  8
Unknown_Line_Type
  70
32
  10
2106187.23
  20
2887666.45
  30
2994
  0
VERTEX
  8
Unknown_Line_Type
  70
32
  10
2106186.68
  20
2887667.85
  30
2994
  0
VERTEX
  8
Unknown_Line_Type
  70
32
  10
2106187.37
  20
2887670.03
  30
2994
  0
VERTEX
  8
Unknown_Line_Type
  70
32
  10
2106191.95
  20
2887675.42
  30
2994
  0
VERTEX
  8
Unknown_Line_Type
  70
32
  10
2106195.24
  20
2887682.74
  30
2994
  0
VERTEX
  8
Unknown_Line_Type
  70
32
  10
2106200.61
  20
2887686.13
  30
2994
  0
VERTEX
  8
Unknown_Line_Type
  70
32
  10
2106208.53
  20
2887686.18
  30
2994
  0
VERTEX
  8
Unknown_Line_Type
  70
32
  10
2106205.94
  20
2887693.71
  30
2994
  0
VERTEX
  8
Unknown_Line_Type
  70
32
  10
2106203.02
  20
2887699.39
  30
2994
  0
VERTEX
  8
Unknown_Line_Type
  70
32
  10
2106209.69
  20
2887707.51
  30
2994
  0
VERTEX
  8
Unknown_Line_Type
  70
32
  10
2106211.98
  20
2887710.76
  30
2994
  0
VERTEX
  8
Unknown_Line_Type
  70
32
  10
2106211.32
  20
2887714.21
  30
2994
  0
VERTEX
  8
Unknown_Line_Type
  70
32
  10
2106211.34
  20
2887714.78
  30
2994
  0
VERTEX
  8
Unknown_Line_Type
  70
32
  10
2106214.77
  20
2887723.85
  30
2994
  0
VERTEX
  8
Unknown_Line_Type
  70
32
  10
2106219.26
  20
2887728.25
  30
2994
  0
VERTEX
  8
Unknown_Line_Type
  70
32
  10
2106217.20
  20
2887732.16
  30
2994
  0
VERTEX
  8
Unknown_Line_Type
  70
32
  10
2106215.34
  20
2887742.94
  30
2994
  0
VERTEX
  8
Unknown_Line_Type
  70
32
  10
2106219.68
  20
2887748.16
  30
2994
  0
VERTEX
  8
Unknown_Line_Type
  70
32
  10
2106221.87
  20
2887755.52
  30
2994
  0
VERTEX
  8
Unknown_Line_Type
  70
32
  10
2106222.72
  20
2887760.14
  30
2994
  0
VERTEX
  8
Unknown_Line_Type
  70
32
  10
2106228.39
  20
2887766.90
  30
2994
  0
VERTEX
  8
Unknown_Line_Type
  70
32
  10
2106230.63
  20
2887773.06
  30
2994
  0
VERTEX
  8
Unknown_Line_Type
  70
32
  10
2106231.57
  20
2887781.82
  30
2994
  0
VERTEX
  8
Unknown_Line_Type
  70
32
  10
2106232.17
  20
2887789.83
  30
2994
  0
VERTEX
  8
Unknown_Line_Type
  70
32
  10
2106232.93
  20
2887792.15
  30
2994
  0
VERTEX
  8
Unknown_Line_Type
  70
32
  10
2106233.68
  20
2887794.27
  30
2994
  0
VERTEX
  8
Unknown_Line_Type
  70
32
  10
2106234.91
  20
2887797.97
  30
2994
  0
VERTEX
  8
Unknown_Line_Type
  70
32
  10
2106235.59
  20
2887805.74
  30
2994
  0
VERTEX
  8
Unknown_Line_Type
  70
32
  10
2106236.75
  20
2887811.64
  30
2994
  0
VERTEX
  8
Unknown_Line_Type
  70
32
  10
2106233.48
  20
2887817.30
  30
2994
  0
VERTEX
  8
Unknown_Line_Type
  70
32
  10
2106233.18
  20
2887817.62
  30
2994
  0
VERTEX
  8
Unknown_Line_Type
  70
32
  10
2106233.10
  20
2887821.85
  30
2994
  0
VERTEX
  8
Unknown_Line_Type
  70
32
  10
2106233.66
  20
2887824.51
  30
2994
  0
VERTEX
  8
Unknown_Line_Type
  70
32
  10
2106233.51
  20
2887827.12
  30
2994
  0
VERTEX
  8
Unknown_Line_Type
  70
32
  10
2106234.17
  20
2887832.46
  30
2994
  0
VERTEX
  8
Unknown_Line_Type
  70
32
  10
2106239.30
  20
2887837.70
  30
2994
  0
VERTEX
  8
Unknown_Line_Type
  70
32
  10
2106245.72
  20
2887843.60
  30
2994
  0
VERTEX
  8
Unknown_Line_Type
  70
32
  10
2106244.76
  20
2887845.36
  30
2994
  0
VERTEX
  8
Unknown_Line_Type
  70
32
  10
2106245.86
  20
2887850.35
  30
2994
  0
VERTEX
  8
Unknown_Line_Type
  70
32
  10
2106247.96
  20
2887853.88
  30
2994
  0
VERTEX
  8
Unknown_Line_Type
  70
32
  10
2106250.24
  20
2887859.56
  30
2994
  0
VERTEX
  8
Unknown_Line_Type
  70
32
  10
2106249.28
  20
2887863.60
  30
2994
  0
VERTEX
  8
Unknown_Line_Type
  70
32
  10
2106250.64
  20
2887873.72
  30
2994
  0
VERTEX
  8
Unknown_Line_Type
  70
32
  10
2106254.50
  20
2887876.63
  30
2994
  0
VERTEX
  8
Unknown_Line_Type
  70
32
  10
2106258.15
  20
2887879.07
  30
2994
  0
VERTEX
  8
Unknown_Line_Type
  70
32
  10
2106260.24
  20
2887885.44
  30
2994
  0
VERTEX
  8
Unknown_Line_Type
  70
32
  10
2106260.23
  20
2887890.86
  30
2994
  0
VERTEX
  8
Unknown_Line_Type
  70
32
  10
2106260.14
  20
2887894.29
  30
2994
  0
VERTEX
  8
Unknown_Line_Type
  70
32
  10
2106259.25
  20
2887904.68
  30
2994
  0
VERTEX
  8
Unknown_Line_Type
  70
32
  10
2106259.20
  20
2887912.44
  30
2994
  0
VERTEX
  8
Unknown_Line_Type
  70
32
  10
2106259.44
  20
2887915.98
  30
2994
  0
VERTEX
  8
Unknown_Line_Type
  70
32
  10
2106260.36
  20
2887917.52
  30
2994
  0
VERTEX
  8
Unknown_Line_Type
  70
32
  10
2106261.31
  20
2887930.96
  30
2994
  0
VERTEX
  8
Unknown_Line_Type
  70
32
  10
2106261.31
  20
2887935.53
  30
2994
  0
VERTEX
  8
Unknown_Line_Type
  70
32
  10
2106262.08
  20
2887941.55
  30
2994
  0
VERTEX
  8
Unknown_Line_Type
  70
32
  10
2106263.58
  20
2887947.85
  30
2994
  0
VERTEX
  8
Unknown_Line_Type
  70
32
  10
2106265.69
  20
2887952.72
  30
2994
  0
VERTEX
  8
Unknown_Line_Type
  70
32
  10
2106269.98
  20
2887955.78
  30
2994
  0
VERTEX
  8
Unknown_Line_Type
  70
32
  10
2106267.41
  20
2887959.79
  30
2994
  0
VERTEX
  8
Unknown_Line_Type
  70
32
  10
2106266.24
  20
2887962.44
  30
2994
  0
VERTEX
  8
Unknown_Line_Type
  70
32
  10
2106265.52
  20
2887965.65
  30
2994
  0
VERTEX
  8
Unknown_Line_Type
  70
32
  10
2106266.95
  20
2887969.86
  30
2994
  0
VERTEX
  8
Unknown_Line_Type
  70
32
  10
2106268.04
  20
2887973.66
  30
2994
  0
VERTEX
  8
Unknown_Line_Type
  70
32
  10
2106267.26
  20
2887978.56
  30
2994
  0
VERTEX
  8
Unknown_Line_Type
  70
32
  10
2106267.12
  20
2887980.52
  30
2994
  0
VERTEX
  8
Unknown_Line_Type
  70
32
  10
2106266.19
  20
2887989.28
  30
2994
  0
VERTEX
  8
Unknown_Line_Type
  70
32
  10
2106265.75
  20
2887995.71
  30
2994
  0
VERTEX
  8
Unknown_Line_Type
  70
32
  10
2106265.28
  20
2887998.94
  30
2994
  0
VERTEX
  8
Unknown_Line_Type
  70
32
  10
2106265.72
  20
2888005.15
  30
2994
  0
VERTEX
  8
Unknown_Line_Type
  70
32
  10
2106265.82
  20
2888011.03
  30
2994
  0
VERTEX
  8
Unknown_Line_Type
  70
32
  10
2106265.89
  20
2888011.72
  30
2994
  0
VERTEX
  8
Unknown_Line_Type
  70
32
  10
2106264.40
  20
2888014.72
  30
2994
  0
VERTEX
  8
Unknown_Line_Type
  70
32
  10
2106260.75
  20
2888026.51
  30
2994
  0
VERTEX
  8
Unknown_Line_Type
  70
32
  10
2106260.02
  20
2888029.84
  30
2994
  0
VERTEX
  8
Unknown_Line_Type
  70
32
  10
2106259.02
  20
2888032.88
  30
2994
  0
VERTEX
  8
Unknown_Line_Type
  70
32
  10
2106256.03
  20
2888041.69
  30
2994
  0
VERTEX
  8
Unknown_Line_Type
  70
32
  10
2106254.85
  20
2888049.16
  30
2994
  0
VERTEX
  8
Unknown_Line_Type
  70
32
  10
2106253.76
  20
2888054.68
  30
2994
  0
VERTEX
  8
Unknown_Line_Type
  70
32
  10
2106253.35
  20
2888055.60
  30
2994
  0
VERTEX
  8
Unknown_Line_Type
  70
32
  10
2106253.09
  20
2888062.65
  30
2994
  0
VERTEX
  8
Unknown_Line_Type
  70
32
  10
2106252.90
  20
2888070.47
  30
2994
  0
VERTEX
  8
Unknown_Line_Type
  70
32
  10
2106254.47
  20
2888074.82
  30
2994
  0
VERTEX
  8
Unknown_Line_Type
  70
32
  10
2106255.69
  20
2888080.32
  30
2994
  0
VERTEX
  8
Unknown_Line_Type
  70
32
  10
2106255.97
  20
2888083.38
  30
2994
  0
VERTEX
  8
Unknown_Line_Type
  70
32
  10
2106258.43
  20
2888087.82
  30
2994
  0
SEQEND
  8
Unknown_Line_Type
  0
POLYLINE
  8
Unknown_Line_Type
  70
8
  66
1
 62
0
 39
0
  0
VERTEX
  8
Unknown_Line_Type
  70
32
  10
2106335.76
  20
2888137.28
  30
2994
  0
VERTEX
  8
Unknown_Line_Type
  70
32
  10
2106339.49
  20
2888133.87
  30
2994
  0
VERTEX
  8
Unknown_Line_Type
  70
32
  10
2106340.84
  20
2888132.40
  30
2994
  0
VERTEX
  8
Unknown_Line_Type
  70
32
  10
2106346.38
  20
2888130.08
  30
2994
  0
VERTEX
  8
Unknown_Line_Type
  70
32
  10
2106348.17
  20
2888137.09
  30
2994
  0
VERTEX
  8
Unknown_Line_Type
  70
32
  10
2106345.01
  20
2888143.19
  30
2994
  0
SEQEND
  8
Unknown_Line_Type
  0
POLYLINE
  8
Unknown_Line_Type
  70
8
  66
1
 62
0
 39
0
  0
VERTEX
  8
Unknown_Line_Type
  70
32
  10
2106160.74
  20
2888025.35
  30
2994
  0
VERTEX
  8
Unknown_Line_Type
  70
32
  10
2106160.69
  20
2888024.90
  30
2994
  0
VERTEX
  8
Unknown_Line_Type
  70
32
  10
2106160.68
  20
2888020.15
  30
2994
  0
VERTEX
  8
Unknown_Line_Type
  70
32
  10
2106160.46
  20
2888016.14
  30
2994
  0
VERTEX
  8
Unknown_Line_Type
  70
32
  10
2106158.98
  20
2888011.06
  30
2994
  0
VERTEX
  8
Unknown_Line_Type
  70
32
  10
2106158.16
  20
2888009.16
  30
2994
  0
VERTEX
  8
Unknown_Line_Type
  70
32
  10
2106157.37
  20
2888001.99
  30
2994
  0
VERTEX
  8
Unknown_Line_Type
  70
32
  10
2106155.89
  20
2887993.06
  30
2994
  0
VERTEX
  8
Unknown_Line_Type
  70
32
  10
2106153.47
  20
2887987.33
  30
2994
  0
VERTEX
  8
Unknown_Line_Type
  70
32
  10
2106150.73
  20
2887985.05
  30
2994
  0
VERTEX
  8
Unknown_Line_Type
  70
32
  10
2106148.93
  20
2887984.94
  30
2994
  0
VERTEX
  8
Unknown_Line_Type
  70
32
  10
2106147.50
  20
2887982.97
  30
2994
  0
VERTEX
  8
Unknown_Line_Type
  70
32
  10
2106146.45
  20
2887971.53
  30
2994
  0
VERTEX
  8
Unknown_Line_Type
  70
32
  10
2106146.16
  20
2887970.80
  30
2994
  0
VERTEX
  8
Unknown_Line_Type
  70
32
  10
2106145.82
  20
2887968.47
  30
2994
  0
VERTEX
  8
Unknown_Line_Type
  70
32
  10
2106144.05
  20
2887960.48
  30
2994
  0
VERTEX
  8
Unknown_Line_Type
  70
32
  10
2106142.87
  20
2887954.81
  30
2994
  0
VERTEX
  8
Unknown_Line_Type
  70
32
  10
2106142.70
  20
2887953.88
  30
2994
  0
VERTEX
  8
Unknown_Line_Type
  70
32
  10
2106142.18
  20
2887952.65
  30
2994
  0
VERTEX
  8
Unknown_Line_Type
  70
32
  10
2106139.22
  20
2887949.43
  30
2994
  0
VERTEX
  8
Unknown_Line_Type
  70
32
  10
2106135.24
  20
2887947.00
  30
2994
  0
VERTEX
  8
Unknown_Line_Type
  70
32
  10
2106133.05
  20
2887943.78
  30
2994
  0
VERTEX
  8
Unknown_Line_Type
  70
32
  10
2106130.69
  20
2887942.45
  30
2994
  0
VERTEX
  8
Unknown_Line_Type
  70
32
  10
2106125.39
  20
2887940.11
  30
2994
  0
VERTEX
  8
Unknown_Line_Type
  70
32
  10
2106121.27
  20
2887938.88
  30
2994
  0
VERTEX
  8
Unknown_Line_Type
  70
32
  10
2106114.02
  20
2887935.66
  30
2994
  0
VERTEX
  8
Unknown_Line_Type
  70
32
  10
2106113.36
  20
2887930.72
  30
2994
  0
VERTEX
  8
Unknown_Line_Type
  70
32
  10
2106110.00
  20
2887926.32
  30
2994
  0
VERTEX
  8
Unknown_Line_Type
  70
32
  10
2106108.55
  20
2887925.02
  30
2994
  0
VERTEX
  8
Unknown_Line_Type
  70
32
  10
2106106.21
  20
2887922.84
  30
2994
  0
VERTEX
  8
Unknown_Line_Type
  70
32
  10
2106104.15
  20
2887922.84
  30
2994
  0
VERTEX
  8
Unknown_Line_Type
  70
32
  10
2106100.15
  20
2887923.02
  30
2994
  0
VERTEX
  8
Unknown_Line_Type
  70
32
  10
2106095.06
  20
2887922.63
  30
2994
  0
VERTEX
  8
Unknown_Line_Type
  70
32
  10
2106091.18
  20
2887920.68
  30
2994
  0
VERTEX
  8
Unknown_Line_Type
  70
32
  10
2106086.24
  20
2887921.58
  30
2994
  0
VERTEX
  8
Unknown_Line_Type
  70
32
  10
2106084.46
  20
2887922.19
  30
2994
  0
VERTEX
  8
Unknown_Line_Type
  70
32
  10
2106079.98
  20
2887927.91
  30
2994
  0
VERTEX
  8
Unknown_Line_Type
  70
32
  10
2106077.78
  20
2887926.83
  30
2994
  0
VERTEX
  8
Unknown_Line_Type
  70
32
  10
2106074.05
  20
2887932.44
  30
2994
  0
VERTEX
  8
Unknown_Line_Type
  70
32
  10
2106071.02
  20
2887932.30
  30
2994
  0
VERTEX
  8
Unknown_Line_Type
  70
32
  10
2106069.58
  20
2887932.65
  30
2994
  0
VERTEX
  8
Unknown_Line_Type
  70
32
  10
2106066.68
  20
2887933.47
  30
2994
  0
VERTEX
  8
Unknown_Line_Type
  70
32
  10
2106062.77
  20
2887934.86
  30
2994
  0
VERTEX
  8
Unknown_Line_Type
  70
32
  10
2106055.82
  20
2887939.61
  30
2994
  0
VERTEX
  8
Unknown_Line_Type
  70
32
  10
2106050.59
  20
2887942.25
  30
2994
  0
VERTEX
  8
Unknown_Line_Type
  70
32
  10
2106049.59
  20
2887943.09
  30
2994
  0
VERTEX
  8
Unknown_Line_Type
  70
32
  10
2106046.27
  20
2887945.95
  30
2994
  0
VERTEX
  8
Unknown_Line_Type
  70
32
  10
2106045.08
  20
2887949.71
  30
2994
  0
VERTEX
  8
Unknown_Line_Type
  70
32
  10
2106042.92
  20
2887950.00
  30
2994
  0
SEQEND
  8
Unknown_Line_Type
  0
POLYLINE
  8
Unknown_Line_Type
  70
8
  66
1
 62
0
 39
0
  0
VERTEX
  8
Unknown_Line_Type
  70
32
  10
2106197.48
  20
2887635.00
  30
2996
  0
VERTEX
  8
Unknown_Line_Type
  70
32
  10
2106198.00
  20
2887636.47
  30
2996
  0
VERTEX
  8
Unknown_Line_Type
  70
32
  10
2106202.67
  20
2887641.86
  30
2996
  0
VERTEX
  8
Unknown_Line_Type
  70
32
  10
2106203.03
  20
2887643.34
  30
2996
  0
VERTEX
  8
Unknown_Line_Type
  70
32
  10
2106205.27
  20
2887642.76
  30
2996
  0
VERTEX
  8
Unknown_Line_Type
  70
32
  10
2106207.72
  20
2887650.16
  30
2996
  0
VERTEX
  8
Unknown_Line_Type
  70
32
  10
2106208.77
  20
2887656.09
  30
2996
  0
VERTEX
  8
Unknown_Line_Type
  70
32
  10
2106211.18
  20
2887660.35
  30
2996
  0
VERTEX
  8
Unknown_Line_Type
  70
32
  10
2106213.61
  20
2887666.83
  30
2996
  0
VERTEX
  8
Unknown_Line_Type
  70
32
  10
2106212.47
  20
2887669.36
  30
2996
  0
VERTEX
  8
Unknown_Line_Type
  70
32
  10
2106217.23
  20
2887676.40
  30
2996
  0
VERTEX
  8
Unknown_Line_Type
  70
32
  10
2106220.44
  20
2887681.22
  30
2996
  0
VERTEX
  8
Unknown_Line_Type
  70
32
  10
2106222.18
  20
2887684.24
  30
2996
  0
VERTEX
  8
Unknown_Line_Type
  70
32
  10
2106224.37
  20
2887691.65
  30
2996
  0
VERTEX
  8
Unknown_Line_Type
  70
32
  10
2106226.85
  20
2887698.39
  30
2996
  0
VERTEX
  8
Unknown_Line_Type
  70
32
  10
2106228.29
  20
2887701.75
  30
2996
  0
VERTEX
  8
Unknown_Line_Type
  70
32
  10
2106226.41
  20
2887705.80
  30
2996
  0
VERTEX
  8
Unknown_Line_Type
  70
32
  10
2106228.24
  20
2887711.68
  30
2996
  0
VERTEX
  8
Unknown_Line_Type
  70
32
  10
2106233.05
  20
2887722.95
  30
2996
  0
VERTEX
  8
Unknown_Line_Type
  70
32
  10
2106231.75
  20
2887729.77
  30
2996
  0
VERTEX
  8
Unknown_Line_Type
  70
32
  10
2106232.64
  20
2887733.95
  30
2996
  0
VERTEX
  8
Unknown_Line_Type
  70
32
  10
2106235.06
  20
2887734.98
  30
2996
  0
VERTEX
  8
Unknown_Line_Type
  70
32
  10
2106234.85
  20
2887744.10
  30
2996
  0
VERTEX
  8
Unknown_Line_Type
  70
32
  10
2106235.61
  20
2887751.16
  30
2996
  0
VERTEX
  8
Unknown_Line_Type
  70
32
  10
2106236.16
  20
2887754.94
  30
2996
  0
VERTEX
  8
Unknown_Line_Type
  70
32
  10
2106237.69
  20
2887763.02
  30
2996
  0
VERTEX
  8
Unknown_Line_Type
  70
32
  10
2106240.05
  20
2887769.49
  30
2996
  0
VERTEX
  8
Unknown_Line_Type
  70
32
  10
2106242.39
  20
2887774.00
  30
2996
  0
VERTEX
  8
Unknown_Line_Type
  70
32
  10
2106244.68
  20
2887779.39
  30
2996
  0
VERTEX
  8
Unknown_Line_Type
  70
32
  10
2106245.10
  20
2887782.81
  30
2996
  0
VERTEX
  8
Unknown_Line_Type
  70
32
  10
2106244.94
  20
2887784.44
  30
2996
  0
VERTEX
  8
Unknown_Line_Type
  70
32
  10
2106245.80
  20
2887788.41
  30
2996
  0
VERTEX
  8
Unknown_Line_Type
  70
32
  10
2106244.30
  20
2887793.51
  30
2996
  0
VERTEX
  8
Unknown_Line_Type
  70
32
  10
2106245.81
  20
2887798.05
  30
2996
  0
VERTEX
  8
Unknown_Line_Type
  70
32
  10
2106246.33
  20
2887803.99
  30
2996
  0
VERTEX
  8
Unknown_Line_Type
  70
32
  10
2106245.71
  20
2887808.79
  30
2996
  0
VERTEX
  8
Unknown_Line_Type
  70
32
  10
2106247.35
  20
2887819.88
  30
2996
  0
VERTEX
  8
Unknown_Line_Type
  70
32
  10
2106245.75
  20
2887823.48
  30
2996
  0
VERTEX
  8
Unknown_Line_Type
  70
32
  10
2106244.79
  20
2887827.87
  30
2996
  0
VERTEX
  8
Unknown_Line_Type
  70
32
  10
2106245.52
  20
2887833.74
  30
2996
  0
VERTEX
  8
Unknown_Line_Type
  70
32
  10
2106247.19
  20
2887835.45
  30
2996
  0
VERTEX
  8
Unknown_Line_Type
  70
32
  10
2106250.91
  20
2887838.87
  30
2996
  0
VERTEX
  8
Unknown_Line_Type
  70
32
  10
2106255.16
  20
2887841.99
  30
2996
  0
VERTEX
  8
Unknown_Line_Type
  70
32
  10
2106254.81
  20
2887843.35
  30
2996
  0
VERTEX
  8
Unknown_Line_Type
  70
32
  10
2106255.56
  20
2887853.13
  30
2996
  0
VERTEX
  8
Unknown_Line_Type
  70
32
  10
2106257.70
  20
2887858.95
  30
2996
  0
VERTEX
  8
Unknown_Line_Type
  70
32
  10
2106257.89
  20
2887865.52
  30
2996
  0
VERTEX
  8
Unknown_Line_Type
  70
32
  10
2106257.26
  20
2887868.17
  30
2996
  0
VERTEX
  8
Unknown_Line_Type
  70
32
  10
2106257.59
  20
2887870.62
  30
2996
  0
VERTEX
  8
Unknown_Line_Type
  70
32
  10
2106258.52
  20
2887871.33
  30
2996
  0
VERTEX
  8
Unknown_Line_Type
  70
32
  10
2106263.23
  20
2887874.48
  30
2996
  0
VERTEX
  8
Unknown_Line_Type
  70
32
  10
2106265.30
  20
2887874.10
  30
2996
  0
VERTEX
  8
Unknown_Line_Type
  70
32
  10
2106267.70
  20
2887876.91
  30
2996
  0
VERTEX
  8
Unknown_Line_Type
  70
32
  10
2106267.36
  20
2887878.87
  30
2996
  0
VERTEX
  8
Unknown_Line_Type
  70
32
  10
2106267.12
  20
2887884.82
  30
2996
  0
VERTEX
  8
Unknown_Line_Type
  70
32
  10
2106267.63
  20
2887891.18
  30
2996
  0
VERTEX
  8
Unknown_Line_Type
  70
32
  10
2106267.05
  20
2887899.47
  30
2996
  0
VERTEX
  8
Unknown_Line_Type
  70
32
  10
2106266.51
  20
2887905.71
  30
2996
  0
VERTEX
  8
Unknown_Line_Type
  70
32
  10
2106266.50
  20
2887908.00
  30
2996
  0
VERTEX
  8
Unknown_Line_Type
  70
32
  10
2106266.69
  20
2887910.96
  30
2996
  0
VERTEX
  8
Unknown_Line_Type
  70
32
  10
2106268.77
  20
2887914.21
  30
2996
  0
VERTEX
  8
Unknown_Line_Type
  70
32
  10
2106267.20
  20
2887921.36
  30
2996
  0
VERTEX
  8
Unknown_Line_Type
  70
32
  10
2106267.82
  20
2887930.29
  30
2996
  0
VERTEX
  8
Unknown_Line_Type
  70
32
  10
2106269.72
  20
2887935.72
  30
2996
  0
VERTEX
  8
Unknown_Line_Type
  70
32
  10
2106271.31
  20
2887942.44
  30
2996
  0
VERTEX
  8
Unknown_Line_Type
  70
32
  10
2106276.69
  20
2887946.82
  30
2996
  0
VERTEX
  8
Unknown_Line_Type
  70
32
  10
2106280.22
  20
2887951.07
  30
2996
  0
VERTEX
  8
Unknown_Line_Type
  70
32
  10
2106278.92
  20
2887955.21
  30
2996
  0
VERTEX
  8
Unknown_Line_Type
  70
32
  10
2106277.05
  20
2887957.78
  30
2996
  0
VERTEX
  8
Unknown_Line_Type
  70
32
  10
2106274.28
  20
2887962.10
  30
2996
  0
VERTEX
  8
Unknown_Line_Type
  70
32
  10
2106273.31
  20
2887964.30
  30
2996
  0
VERTEX
  8
Unknown_Line_Type
  70
32
  10
2106272.69
  20
2887970.80
  30
2996
  0
VERTEX
  8
Unknown_Line_Type
  70
32
  10
2106273.71
  20
2887974.37
  30
2996
  0
VERTEX
  8
Unknown_Line_Type
  70
32
  10
2106273.51
  20
2887975.65
  30
2996
  0
VERTEX
  8
Unknown_Line_Type
  70
32
  10
2106273.08
  20
2887981.71
  30
2996
  0
VERTEX
  8
Unknown_Line_Type
  70
32
  10
2106272.26
  20
2887989.46
  30
2996
  0
VERTEX
  8
Unknown_Line_Type
  70
32
  10
2106273.99
  20
2887993.70
  30
2996
  0
VERTEX
  8
Unknown_Line_Type
  70
32
  10
2106272.96
  20
2887999.36
  30
2996
  0
VERTEX
  8
Unknown_Line_Type
  70
32
  10
2106270.90
  20
2888004.90
  30
2996
  0
VERTEX
  8
Unknown_Line_Type
  70
32
  10
2106271.01
  20
2888011.27
  30
2996
  0
VERTEX
  8
Unknown_Line_Type
  70
32
  10
2106271.22
  20
2888013.42
  30
2996
  0
VERTEX
  8
Unknown_Line_Type
  70
32
  10
2106266.63
  20
2888022.66
  30
2996
  0
VERTEX
  8
Unknown_Line_Type
  70
32
  10
2106265.57
  20
2888026.06
  30
2996
  0
VERTEX
  8
Unknown_Line_Type
  70
32
  10
2106265.36
  20
2888027.02
  30
2996
  0
VERTEX
  8
Unknown_Line_Type
  70
32
  10
2106262.59
  20
2888035.48
  30
2996
  0
VERTEX
  8
Unknown_Line_Type
  70
32
  10
2106261.58
  20
2888038.44
  30
2996
  0
VERTEX
  8
Unknown_Line_Type
  70
32
  10
2106259.45
  20
2888052.03
  30
2996
  0
VERTEX
  8
Unknown_Line_Type
  70
32
  10
2106259.13
  20
2888053.62
  30
2996
  0
VERTEX
  8
Unknown_Line_Type
  70
32
  10
2106257.91
  20
2888056.41
  30
2996
  0
VERTEX
  8
Unknown_Line_Type
  70
32
  10
2106257.63
  20
2888063.81
  30
2996
  0
VERTEX
  8
Unknown_Line_Type
  70
32
  10
2106258.31
  20
2888068.32
  30
2996
  0
VERTEX
  8
Unknown_Line_Type
  70
32
  10
2106258.17
  20
2888071.68
  30
2996
  0
VERTEX
  8
Unknown_Line_Type
  70
32
  10
2106258.45
  20
2888077.52
  30
2996
  0
VERTEX
  8
Unknown_Line_Type
  70
32
  10
2106259.37
  20
2888081.66
  30
2996
  0
VERTEX
  8
Unknown_Line_Type
  70
32
  10
2106259.44
  20
2888082.39
  30
2996
  0
VERTEX
  8
Unknown_Line_Type
  70
32
  10
2106260.89
  20
2888085.02
  30
2996
  0
VERTEX
  8
Unknown_Line_Type
  70
32
  10
2106263.81
  20
2888091.27
  30
2996
  0
SEQEND
  8
Unknown_Line_Type
  0
POLYLINE
  8
Unknown_Line_Type
  70
8
  66
1
 62
0
 39
0
  0
VERTEX
  8
Unknown_Line_Type
  70
32
  10
2106310.93
  20
2888121.40
  30
2996
  0
VERTEX
  8
Unknown_Line_Type
  70
32
  10
2106312.84
  20
2888120.65
  30
2996
  0
VERTEX
  8
Unknown_Line_Type
  70
32
  10
2106316.21
  20
2888120.40
  30
2996
  0
VERTEX
  8
Unknown_Line_Type
  70
32
  10
2106322.49
  20
2888118.91
  30
2996
  0
VERTEX
  8
Unknown_Line_Type
  70
32
  10
2106326.94
  20
2888119.28
  30
2996
  0
VERTEX
  8
Unknown_Line_Type
  70
32
  10
2106334.68
  20
2888121.31
  30
2996
  0
VERTEX
  8
Unknown_Line_Type
  70
32
  10
2106338.85
  20
2888116.93
  30
2996
  0
VERTEX
  8
Unknown_Line_Type
  70
32
  10
2106344.44
  20
2888115.02
  30
2996
  0
VERTEX
  8
Unknown_Line_Type
  70
32
  10
2106349.63
  20
2888115.68
  30
2996
  0
VERTEX
  8
Unknown_Line_Type
  70
32
  10
2106357.17
  20
2888109.51
  30
2996
  0
VERTEX
  8
Unknown_Line_Type
  70
32
  10
2106361.38
  20
2888113.89
  30
2996
  0
VERTEX
  8
Unknown_Line_Type
  70
32
  10
2106366.10
  20
2888113.63
  30
2996
  0
VERTEX
  8
Unknown_Line_Type
  70
32
  10
2106370.44
  20
2888113.94
  30
2996
  0
VERTEX
  8
Unknown_Line_Type
  70
32
  10
2106372.81
  20
2888111.86
  30
2996
  0
VERTEX
  8
Unknown_Line_Type
  70
32
  10
2106381.29
  20
2888107.44
  30
2996
  0
VERTEX
  8
Unknown_Line_Type
  70
32
  10
2106386.44
  20
2888104.02
  30
2996
  0
VERTEX
  8
Unknown_Line_Type
  70
32
  10
2106389.50
  20
2888102.34
  30
2996
  0
VERTEX
  8
Unknown_Line_Type
  70
32
  10
2106396.05
  20
2888104.54
  30
2996
  0
VERTEX
  8
Unknown_Line_Type
  70
32
  10
2106399.80
  20
2888089.51
  30
2996
  0
VERTEX
  8
Unknown_Line_Type
  70
32
  10
2106400.17
  20
2888085.10
  30
2996
  0
VERTEX
  8
Unknown_Line_Type
  70
32
  10
2106403.84
  20
2888082.95
  30
2996
  0
VERTEX
  8
Unknown_Line_Type
  70
32
  10
2106405.87
  20
2888079.98
  30
2996
  0
VERTEX
  8
Unknown_Line_Type
  70
32
  10
2106413.06
  20
2888073.19
  30
2996
  0
VERTEX
  8
Unknown_Line_Type
  70
32
  10
2106418.27
  20
2888070.20
  30
2996
  0
VERTEX
  8
Unknown_Line_Type
  70
32
  10
2106421.25
  20
2888065.54
  30
2996
  0
VERTEX
  8
Unknown_Line_Type
  70
32
  10
2106424.92
  20
2888072.03
  30
2996
  0
VERTEX
  8
Unknown_Line_Type
  70
32
  10
2106427.24
  20
2888076.41
  30
2996
  0
VERTEX
  8
Unknown_Line_Type
  70
32
  10
2106420.79
  20
2888078.54
  30
2996
  0
VERTEX
  8
Unknown_Line_Type
  70
32
  10
2106413.79
  20
2888084.37
  30
2996
  0
VERTEX
  8
Unknown_Line_Type
  70
32
  10
2106415.52
  20
2888090.21
  30
2996
  0
VERTEX
  8
Unknown_Line_Type
  70
32
  10
2106411.83
  20
2888096.45
  30
2996
  0
VERTEX
  8
Unknown_Line_Type
  70
32
  10
2106412.02
  20
2888113.75
  30
2996
  0
VERTEX
  8
Unknown_Line_Type
  70
32
  10
2106414.19
  20
2888114.55
  30
2996
  0
VERTEX
  8
Unknown_Line_Type
  70
32
  10
2106414.75
  20
2888119.88
  30
2996
  0
VERTEX
  8
Unknown_Line_Type
  70
32
  10
2106413.22
  20
2888122.36
  30
2996
  0
VERTEX
  8
Unknown_Line_Type
  70
32
  10
2106417.43
  20
2888132.03
  30
2996
  0
VERTEX
  8
Unknown_Line_Type
  70
32
  10
2106424.30
  20
2888129.92
  30
2996
  0
VERTEX
  8
Unknown_Line_Type
  70
32
  10
2106429.82
  20
2888131.70
  30
2996
  0
VERTEX
  8
Unknown_Line_Type
  70
32
  10
2106439.03
  20
2888130.82
  30
2996
  0
VERTEX
  8
Unknown_Line_Type
  70
32
  10
2106439.07
  20
2888137.18
  30
2996
  0
VERTEX
  8
Unknown_Line_Type
  70
32
  10
2106448.24
  20
2888143.90
  30
2996
  0
VERTEX
  8
Unknown_Line_Type
  70
32
  10
2106451.44
  20
2888146.08
  30
2996
  0
VERTEX
  8
Unknown_Line_Type
  70
32
  10
2106453.81
  20
2888149.66
  30
2996
  0
VERTEX
  8
Unknown_Line_Type
  70
32
  10
2106450.35
  20
2888149.44
  30
2996
  0
VERTEX
  8
Unknown_Line_Type
  70
32
  10
2106440.93
  20
2888156.66
  30
2996
  0
VERTEX
  8
Unknown_Line_Type
  70
32
  10
2106440.02
  20
2888163.60
  30
2996
  0
VERTEX
  8
Unknown_Line_Type
  70
32
  10
2106433.17
  20
2888162.14
  30
2996
  0
VERTEX
  8
Unknown_Line_Type
  70
32
  10
2106423.30
  20
2888164.96
  30
2996
  0
VERTEX
  8
Unknown_Line_Type
  70
32
  10
2106420.71
  20
2888168.84
  30
2996
  0
VERTEX
  8
Unknown_Line_Type
  70
32
  10
2106415.78
  20
2888170.10
  30
2996
  0
VERTEX
  8
Unknown_Line_Type
  70
32
  10
2106414.14
  20
2888171.90
  30
2996
  0
VERTEX
  8
Unknown_Line_Type
  70
32
  10
2106404.55
  20
2888177.49
  30
2996
  0
VERTEX
  8
Unknown_Line_Type
  70
32
  10
2106402.10
  20
2888179.71
  30
2996
  0
SEQEND
  8
Unknown_Line_Type
  0
POLYLINE
  8
Unknown_Line_Type
  70
8
  66
1
 62
0
 39
0
  0
VERTEX
  8
Unknown_Line_Type
  70
32
  10
2106148.78
  20
2888017.70
  30
2996
  0
VERTEX
  8
Unknown_Line_Type
  70
32
  10
2106148.35
  20
2888016.10
  30
2996
  0
VERTEX
  8
Unknown_Line_Type
  70
32
  10
2106147.77
  20
2888008.46
  30
2996
  0
VERTEX
  8
Unknown_Line_Type
  70
32
  10
2106145.93
  20
2888000.32
  30
2996
  0
VERTEX
  8
Unknown_Line_Type
  70
32
  10
2106145.19
  20
2887997.12
  30
2996
  0
VERTEX
  8
Unknown_Line_Type
  70
32
  10
2106143.39
  20
2887995.40
  30
2996
  0
VERTEX
  8
Unknown_Line_Type
  70
32
  10
2106141.97
  20
2887995.07
  30
2996
  0
VERTEX
  8
Unknown_Line_Type
  70
32
  10
2106134.95
  20
2887988.24
  30
2996
  0
VERTEX
  8
Unknown_Line_Type
  70
32
  10
2106136.79
  20
2887985.81
  30
2996
  0
VERTEX
  8
Unknown_Line_Type
  70
32
  10
2106136.28
  20
2887976.33
  30
2996
  0
VERTEX
  8
Unknown_Line_Type
  70
32
  10
2106131.88
  20
2887968.98
  30
2996
  0
VERTEX
  8
Unknown_Line_Type
  70
32
  10
2106132.12
  20
2887966.12
  30
2996
  0
VERTEX
  8
Unknown_Line_Type
  70
32
  10
2106127.31
  20
2887959.93
  30
2996
  0
VERTEX
  8
Unknown_Line_Type
  70
32
  10
2106125.56
  20
2887955.17
  30
2996
  0
VERTEX
  8
Unknown_Line_Type
  70
32
  10
2106123.39
  20
2887952.22
  30
2996
  0
VERTEX
  8
Unknown_Line_Type
  70
32
  10
2106120.10
  20
2887951.08
  30
2996
  0
VERTEX
  8
Unknown_Line_Type
  70
32
  10
2106111.11
  20
2887948.34
  30
2996
  0
VERTEX
  8
Unknown_Line_Type
  70
32
  10
2106103.70
  20
2887945.05
  30
2996
  0
VERTEX
  8
Unknown_Line_Type
  70
32
  10
2106093.35
  20
2887942.16
  30
2996
  0
VERTEX
  8
Unknown_Line_Type
  70
32
  10
2106086.21
  20
2887938.92
  30
2996
  0
VERTEX
  8
Unknown_Line_Type
  70
32
  10
2106080.78
  20
2887941.78
  30
2996
  0
VERTEX
  8
Unknown_Line_Type
  70
32
  10
2106077.88
  20
2887940.94
  30
2996
  0
VERTEX
  8
Unknown_Line_Type
  70
32
  10
2106076.63
  20
2887941.74
  30
2996
  0
VERTEX
  8
Unknown_Line_Type
  70
32
  10
2106073.59
  20
2887942.53
  30
2996
  0
VERTEX
  8
Unknown_Line_Type
  70
32
  10
2106069.38
  20
2887947.16
  30
2996
  0
VERTEX
  8
Unknown_Line_Type
  70
32
  10
2106061.62
  20
2887948.92
  30
2996
  0
VERTEX
  8
Unknown_Line_Type
  70
32
  10
2106057.18
  20
2887952.70
  30
2996
  0
VERTEX
  8
Unknown_Line_Type
  70
32
  10
2106056.40
  20
2887953.07
  30
2996
  0
VERTEX
  8
Unknown_Line_Type
  70
32
  10
2106055.17
  20
2887956.19
  30
2996
  0
VERTEX
  8
Unknown_Line_Type
  70
32
  10
2106054.74
  20
2887957.55
  30
2996
  0
SEQEND
  8
Unknown_Line_Type
  0
POLYLINE
  8
Unknown_Line_Type
  70
8
  66
1
 62
0
 39
0
  0
VERTEX
  8
Unknown_Line_Type
  70
32
  10
2106224.03
  20
2887635.00
  30
2998
  0
VERTEX
  8
Unknown_Line_Type
  70
32
  10
2106226.25
  20
2887636.94
  30
2998
  0
VERTEX
  8
Unknown_Line_Type
  70
32
  10
2106225.30
  20
2887645.42
  30
2998
  0
VERTEX
  8
Unknown_Line_Type
  70
32
  10
2106223.89
  20
2887650.21
  30
2998
  0
VERTEX
  8
Unknown_Line_Type
  70
32
  10
2106227.86
  20
2887656.91
  30
2998
  0
VERTEX
  8
Unknown_Line_Type
  70
32
  10
2106230.27
  20
2887663.35
  30
2998
  0
VERTEX
  8
Unknown_Line_Type
  70
32
  10
2106234.73
  20
2887669.09
  30
2998
  0
VERTEX
  8
Unknown_Line_Type
  70
32
  10
2106239.20
  20
2887668.66
  30
2998
  0
VERTEX
  8
Unknown_Line_Type
  70
32
  10
2106239.20
  20
2887676.67
  30
2998
  0
VERTEX
  8
Unknown_Line_Type
  70
32
  10
2106238.35
  20
2887679.56
  30
2998
  0
VERTEX
  8
Unknown_Line_Type
  70
32
  10
2106241.31
  20
2887680.65
  30
2998
  0
VERTEX
  8
Unknown_Line_Type
  70
32
  10
2106242.36
  20
2887689.15
  30
2998
  0
VERTEX
  8
Unknown_Line_Type
  70
32
  10
2106243.55
  20
2887696.00
  30
2998
  0
VERTEX
  8
Unknown_Line_Type
  70
32
  10
2106243.89
  20
2887701.82
  30
2998
  0
VERTEX
  8
Unknown_Line_Type
  70
32
  10
2106243.87
  20
2887703.15
  30
2998
  0
VERTEX
  8
Unknown_Line_Type
  70
32
  10
2106247.94
  20
2887711.47
  30
2998
  0
VERTEX
  8
Unknown_Line_Type
  70
32
  10
2106249.93
  20
2887716.50
  30
2998
  0
VERTEX
  8
Unknown_Line_Type
  70
32
  10
2106248.31
  20
2887719.93
  30
2998
  0
VERTEX
  8
Unknown_Line_Type
  70
32
  10
2106245.96
  20
2887721.20
  30
2998
  0
VERTEX
  8
Unknown_Line_Type
  70
32
  10
2106246.22
  20
2887726.25
  30
2998
  0
VERTEX
  8
Unknown_Line_Type
  70
32
  10
2106247.13
  20
2887727.08
  30
2998
  0
VERTEX
  8
Unknown_Line_Type
  70
32
  10
2106249.25
  20
2887731.54
  30
2998
  0
VERTEX
  8
Unknown_Line_Type
  70
32
  10
2106251.89
  20
2887734.69
  30
2998
  0
VERTEX
  8
Unknown_Line_Type
  70
32
  10
2106250.14
  20
2887743.79
  30
2998
  0
VERTEX
  8
Unknown_Line_Type
  70
32
  10
2106252.83
  20
2887754.00
  30
2998
  0
VERTEX
  8
Unknown_Line_Type
  70
32
  10
2106254.57
  20
2887758.88
  30
2998
  0
VERTEX
  8
Unknown_Line_Type
  70
32
  10
2106255.31
  20
2887764.42
  30
2998
  0
VERTEX
  8
Unknown_Line_Type
  70
32
  10
2106256.63
  20
2887769.17
  30
2998
  0
VERTEX
  8
Unknown_Line_Type
  70
32
  10
2106255.49
  20
2887774.04
  30
2998
  0
VERTEX
  8
Unknown_Line_Type
  70
32
  10
2106253.19
  20
2887778.19
  30
2998
  0
VERTEX
  8
Unknown_Line_Type
  70
32
  10
2106253.73
  20
2887782.56
  30
2998
  0
VERTEX
  8
Unknown_Line_Type
  70
32
  10
2106253.02
  20
2887789.52
  30
2998
  0
VERTEX
  8
Unknown_Line_Type
  70
32
  10
2106254.05
  20
2887794.26
  30
2998
  0
VERTEX
  8
Unknown_Line_Type
  70
32
  10
2106253.99
  20
2887796.58
  30
2998
  0
VERTEX
  8
Unknown_Line_Type
  70
32
  10
2106256.20
  20
2887797.07
  30
2998
  0
VERTEX
  8
Unknown_Line_Type
  70
32
  10
2106255.66
  20
2887801.40
  30
2998
  0
VERTEX
  8
Unknown_Line_Type
  70
32
  10
2106256.88
  20
2887808.86
  30
2998
  0
VERTEX
  8
Unknown_Line_Type
  70
32
  10
2106258.18
  20
2887817.65
  30
2998
  0
VERTEX
  8
Unknown_Line_Type
  70
32
  10
2106259.28
  20
2887827.55
  30
2998
  0
VERTEX
  8
Unknown_Line_Type
  70
32
  10
2106262.16
  20
2887833.97
  30
2998
  0
VERTEX
  8
Unknown_Line_Type
  70
32
  10
2106264.12
  20
2887841.81
  30
2998
  0
VERTEX
  8
Unknown_Line_Type
  70
32
  10
2106264.46
  20
2887843.59
  30
2998
  0
VERTEX
  8
Unknown_Line_Type
  70
32
  10
2106265.07
  20
2887852.77
  30
2998
  0
VERTEX
  8
Unknown_Line_Type
  70
32
  10
2106265.49
  20
2887859.19
  30
2998
  0
VERTEX
  8
Unknown_Line_Type
  70
32
  10
2106267.34
  20
2887862.24
  30
2998
  0
VERTEX
  8
Unknown_Line_Type
  70
32
  10
2106271.25
  20
2887867.49
  30
2998
  0
VERTEX
  8
Unknown_Line_Type
  70
32
  10
2106274.51
  20
2887871.31
  30
2998
  0
VERTEX
  8
Unknown_Line_Type
  70
32
  10
2106274.13
  20
2887873.48
  30
2998
  0
VERTEX
  8
Unknown_Line_Type
  70
32
  10
2106275.54
  20
2887873.88
  30
2998
  0
VERTEX
  8
Unknown_Line_Type
  70
32
  10
2106279.94
  20
2887880.81
  30
2998
  0
VERTEX
  8
Unknown_Line_Type
  70
32
  10
2106280.12
  20
2887885.65
  30
2998
  0
VERTEX
  8
Unknown_Line_Type
  70
32
  10
2106279.36
  20
2887887.06
  30
2998
  0
VERTEX
  8
Unknown_Line_Type
  70
32
  10
2106278.95
  20
2887895.61
  30
2998
  0
VERTEX
  8
Unknown_Line_Type
  70
32
  10
2106278.50
  20
2887902.76
  30
2998
  0
VERTEX
  8
Unknown_Line_Type
  70
32
  10
2106277.13
  20
2887907.60
  30
2998
  0
VERTEX
  8
Unknown_Line_Type
  70
32
  10
2106278.96
  20
2887910.52
  30
2998
  0
VERTEX
  8
Unknown_Line_Type
  70
32
  10
2106281.19
  20
2887914.43
  30
2998
  0
VERTEX
  8
Unknown_Line_Type
  70
32
  10
2106281.08
  20
2887916.94
  30
2998
  0
VERTEX
  8
Unknown_Line_Type
  70
32
  10
2106279.34
  20
2887923.43
  30
2998
  0
VERTEX
  8
Unknown_Line_Type
  70
32
  10
2106281.30
  20
2887929.02
  30
2998
  0
VERTEX
  8
Unknown_Line_Type
  70
32
  10
2106286.98
  20
2887931.04
  30
2998
  0
VERTEX
  8
Unknown_Line_Type
  70
32
  10
2106290.53
  20
2887932.51
  30
2998
  0
VERTEX
  8
Unknown_Line_Type
  70
32
  10
2106290.14
  20
2887939.37
  30
2998
  0
VERTEX
  8
Unknown_Line_Type
  70
32
  10
2106290.51
  20
2887940.87
  30
2998
  0
VERTEX
  8
Unknown_Line_Type
  70
32
  10
2106289.95
  20
2887945.53
  30
2998
  0
VERTEX
  8
Unknown_Line_Type
  70
32
  10
2106292.04
  20
2887953.12
  30
2998
  0
VERTEX
  8
Unknown_Line_Type
  70
32
  10
2106294.57
  20
2887958.29
  30
2998
  0
VERTEX
  8
Unknown_Line_Type
  70
32
  10
2106295.61
  20
2887960.45
  30
2998
  0
VERTEX
  8
Unknown_Line_Type
  70
32
  10
2106295.69
  20
2887965.28
  30
2998
  0
VERTEX
  8
Unknown_Line_Type
  70
32
  10
2106291.14
  20
2887968.70
  30
2998
  0
VERTEX
  8
Unknown_Line_Type
  70
32
  10
2106287.03
  20
2887979.93
  30
2998
  0
VERTEX
  8
Unknown_Line_Type
  70
32
  10
2106284.91
  20
2887986.13
  30
2998
  0
VERTEX
  8
Unknown_Line_Type
  70
32
  10
2106284.85
  20
2887990.40
  30
2998
  0
VERTEX
  8
Unknown_Line_Type
  70
32
  10
2106283.53
  20
2887994.32
  30
2998
  0
VERTEX
  8
Unknown_Line_Type
  70
32
  10
2106282.52
  20
2887999.89
  30
2998
  0
VERTEX
  8
Unknown_Line_Type
  70
32
  10
2106280.12
  20
2888006.33
  30
2998
  0
VERTEX
  8
Unknown_Line_Type
  70
32
  10
2106279.69
  20
2888013.58
  30
2998
  0
VERTEX
  8
Unknown_Line_Type
  70
32
  10
2106279.33
  20
2888015.14
  30
2998
  0
VERTEX
  8
Unknown_Line_Type
  70
32
  10
2106277.02
  20
2888018.64
  30
2998
  0
VERTEX
  8
Unknown_Line_Type
  70
32
  10
2106274.47
  20
2888025.45
  30
2998
  0
VERTEX
  8
Unknown_Line_Type
  70
32
  10
2106269.11
  20
2888030.51
  30
2998
  0
VERTEX
  8
Unknown_Line_Type
  70
32
  10
2106267.50
  20
2888035.28
  30
2998
  0
VERTEX
  8
Unknown_Line_Type
  70
32
  10
2106266.99
  20
2888045.50
  30
2998
  0
VERTEX
  8
Unknown_Line_Type
  70
32
  10
2106265.82
  20
2888053.83
  30
2998
  0
VERTEX
  8
Unknown_Line_Type
  70
32
  10
2106264.70
  20
2888055.72
  30
2998
  0
VERTEX
  8
Unknown_Line_Type
  70
32
  10
2106263.90
  20
2888059.84
  30
2998
  0
VERTEX
  8
Unknown_Line_Type
  70
32
  10
2106264.67
  20
2888065.00
  30
2998
  0
VERTEX
  8
Unknown_Line_Type
  70
32
  10
2106264.26
  20
2888074.93
  30
2998
  0
VERTEX
  8
Unknown_Line_Type
  70
32
  10
2106264.44
  20
2888078.76
  30
2998
  0
VERTEX
  8
Unknown_Line_Type
  70
32
  10
2106268.69
  20
2888083.50
  30
2998
  0
VERTEX
  8
Unknown_Line_Type
  70
32
  10
2106268.56
  20
2888086.78
  30
2998
  0
VERTEX
  8
Unknown_Line_Type
  70
32
  10
2106271.16
  20
2888093.14
  30
2998
  0
VERTEX
  8
Unknown_Line_Type
  70
32
  10
2106275.20
  20
2888097.46
  30
2998
  0
VERTEX
  8
Unknown_Line_Type
  70
32
  10
2106278.85
  20
2888099.82
  30
2998
  0
VERTEX
  8
Unknown_Line_Type
  70
32
  10
2106281.39
  20
2888102.51
  30
2998
  0
SEQEND
  8
Unknown_Line_Type
  0
POLYLINE
  8
Unknown_Line_Type
  70
8
  66
1
 62
0
 39
0
  0
VERTEX
  8
Unknown_Line_Type
  70
32
  10
2106288.01
  20
2888106.74
  30
2998
  0
VERTEX
  8
Unknown_Line_Type
  70
32
  10
2106293.13
  20
2888108.51
  30
2998
  0
VERTEX
  8
Unknown_Line_Type
  70
32
  10
2106299.84
  20
2888112.74
  30
2998
  0
VERTEX
  8
Unknown_Line_Type
  70
32
  10
2106303.36
  20
2888114.93
  30
2998
  0
VERTEX
  8
Unknown_Line_Type
  70
32
  10
2106308.07
  20
2888113.07
  30
2998
  0
VERTEX
  8
Unknown_Line_Type
  70
32
  10
2106318.76
  20
2888112.30
  30
2998
  0
VERTEX
  8
Unknown_Line_Type
  70
32
  10
2106320.92
  20
2888111.78
  30
2998
  0
VERTEX
  8
Unknown_Line_Type
  70
32
  10
2106325.50
  20
2888112.17
  30
2998
  0
VERTEX
  8
Unknown_Line_Type
  70
32
  10
2106329.53
  20
2888108.24
  30
2998
  0
VERTEX
  8
Unknown_Line_Type
  70
32
  10
2106333.88
  20
2888108.85
  30
2998
  0
VERTEX
  8
Unknown_Line_Type
  70
32
  10
2106340.82
  20
2888106.61
  30
2998
  0
VERTEX
  8
Unknown_Line_Type
  70
32
  10
2106348.76
  20
2888103.43
  30
2998
  0
VERTEX
  8
Unknown_Line_Type
  70
32
  10
2106357.95
  20
2888096.26
  30
2998
  0
VERTEX
  8
Unknown_Line_Type
  70
32
  10
2106360.83
  20
2888094.73
  30
2998
  0
VERTEX
  8
Unknown_Line_Type
  70
32
  10
2106366.40
  20
2888090.15
  30
2998
  0
VERTEX
  8
Unknown_Line_Type
  70
32
  10
2106366.51
  20
2888086.54
  30
2998
  0
VERTEX
  8
Unknown_Line_Type
  70
32
  10
2106365.61
  20
2888084.50
  30
2998
  0
VERTEX
  8
Unknown_Line_Type
  70
32
  10
2106367.05
  20
2888081.44
  30
2998
  0
VERTEX
  8
Unknown_Line_Type
  70
32
  10
2106367.55
  20
2888076.02
  30
2998
  0
VERTEX
  8
Unknown_Line_Type
  70
32
  10
2106370.72
  20
2888072.15
  30
2998
  0
VERTEX
  8
Unknown_Line_Type
  70
32
  10
2106371.45
  20
2888069.93
  30
2998
  0
VERTEX
  8
Unknown_Line_Type
  70
32
  10
2106375.06
  20
2888066.59
  30
2998
  0
VERTEX
  8
Unknown_Line_Type
  70
32
  10
2106378.06
  20
2888063.60
  30
2998
  0
VERTEX
  8
Unknown_Line_Type
  70
32
  10
2106382.11
  20
2888059.51
  30
2998
  0
VERTEX
  8
Unknown_Line_Type
  70
32
  10
2106382.12
  20
2888056.31
  30
2998
  0
VERTEX
  8
Unknown_Line_Type
  70
32
  10
2106384.08
  20
2888053.00
  30
2998
  0
VERTEX
  8
Unknown_Line_Type
  70
32
  10
2106388.16
  20
2888042.98
  30
2998
  0
VERTEX
  8
Unknown_Line_Type
  70
32
  10
2106390.01
  20
2888040.78
  30
2998
  0
VERTEX
  8
Unknown_Line_Type
  70
32
  10
2106394.66
  20
2888037.48
  30
2998
  0
VERTEX
  8
Unknown_Line_Type
  70
32
  10
2106398.99
  20
2888040.61
  30
2998
  0
VERTEX
  8
Unknown_Line_Type
  70
32
  10
2106412.24
  20
2888042.34
  30
2998
  0
VERTEX
  8
Unknown_Line_Type
  70
32
  10
2106413.49
  20
2888039.91
  30
2998
  0
VERTEX
  8
Unknown_Line_Type
  70
32
  10
2106416.61
  20
2888040.75
  30
2998
  0
VERTEX
  8
Unknown_Line_Type
  70
32
  10
2106419.86
  20
2888034.91
  30
2998
  0
VERTEX
  8
Unknown_Line_Type
  70
32
  10
2106426.22
  20
2888027.56
  30
2998
  0
VERTEX
  8
Unknown_Line_Type
  70
32
  10
2106426.87
  20
2888024.75
  30
2998
  0
VERTEX
  8
Unknown_Line_Type
  70
32
  10
2106427.43
  20
2888020.67
  30
2998
  0
VERTEX
  8
Unknown_Line_Type
  70
32
  10
2106436.74
  20
2888019.15
  30
2998
  0
VERTEX
  8
Unknown_Line_Type
  70
32
  10
2106438.22
  20
2888018.59
  30
2998
  0
VERTEX
  8
Unknown_Line_Type
  70
32
  10
2106442.95
  20
2888018.47
  30
2998
  0
VERTEX
  8
Unknown_Line_Type
  70
32
  10
2106454.11
  20
2888022.54
  30
2998
  0
VERTEX
  8
Unknown_Line_Type
  70
32
  10
2106456.27
  20
2888024.19
  30
2998
  0
VERTEX
  8
Unknown_Line_Type
  70
32
  10
2106462.65
  20
2888024.41
  30
2998
  0
VERTEX
  8
Unknown_Line_Type
  70
32
  10
2106465.26
  20
2888023.36
  30
2998
  0
VERTEX
  8
Unknown_Line_Type
  70
32
  10
2106469.20
  20
2888021.72
  30
2998
  0
VERTEX
  8
Unknown_Line_Type
  70
32
  10
2106478.98
  20
2888018.68
  30
2998
  0
VERTEX
  8
Unknown_Line_Type
  70
32
  10
2106487.00
  20
2888018.80
  30
2998
  0
VERTEX
  8
Unknown_Line_Type
  70
32
  10
2106490.11
  20
2888020.49
  30
2998
  0
VERTEX
  8
Unknown_Line_Type
  70
32
  10
2106498.67
  20
2888019.39
  30
2998
  0
VERTEX
  8
Unknown_Line_Type
  70
32
  10
2106503.30
  20
2888016.05
  30
2998
  0
VERTEX
  8
Unknown_Line_Type
  70
32
  10
2106505.94
  20
2888016.11
  30
2998
  0
VERTEX
  8
Unknown_Line_Type
  70
32
  10
2106507.11
  20
2888024.20
  30
2998
  0
VERTEX
  8
Unknown_Line_Type
  70
32
  10
2106505.04
  20
2888026.30
  30
2998
  0
VERTEX
  8
Unknown_Line_Type
  70
32
  10
2106503.73
  20
2888035.94
  30
2998
  0
VERTEX
  8
Unknown_Line_Type
  70
32
  10
2106501.51
  20
2888040.31
  30
2998
  0
VERTEX
  8
Unknown_Line_Type
  70
32
  10
2106495.73
  20
2888048.84
  30
2998
  0
VERTEX
  8
Unknown_Line_Type
  70
32
  10
2106496.36
  20
2888050.97
  30
2998
  0
VERTEX
  8
Unknown_Line_Type
  70
32
  10
2106506.95
  20
2888059.63
  30
2998
  0
VERTEX
  8
Unknown_Line_Type
  70
32
  10
2106511.78
  20
2888064.01
  30
2998
  0
VERTEX
  8
Unknown_Line_Type
  70
32
  10
2106510.06
  20
2888068.38
  30
2998
  0
VERTEX
  8
Unknown_Line_Type
  70
32
  10
2106509.13
  20
2888068.58
  30
2998
  0
VERTEX
  8
Unknown_Line_Type
  70
32
  10
2106498.71
  20
2888070.37
  30
2998
  0
VERTEX
  8
Unknown_Line_Type
  70
32
  10
2106498.72
  20
2888072.96
  30
2998
  0
VERTEX
  8
Unknown_Line_Type
  70
32
  10
2106496.37
  20
2888084.44
  30
2998
  0
VERTEX
  8
Unknown_Line_Type
  70
32
  10
2106491.87
  20
2888084.28
  30
2998
  0
VERTEX
  8
Unknown_Line_Type
  70
32
  10
2106495.59
  20
2888095.63
  30
2998
  0
VERTEX
  8
Unknown_Line_Type
  70
32
  10
2106496.20
  20
2888098.78
  30
2998
  0
VERTEX
  8
Unknown_Line_Type
  70
32
  10
2106491.35
  20
2888107.48
  30
2998
  0
VERTEX
  8
Unknown_Line_Type
  70
32
  10
2106492.47
  20
2888113.55
  30
2998
  0
VERTEX
  8
Unknown_Line_Type
  70
32
  10
2106494.01
  20
2888117.12
  30
2998
  0
VERTEX
  8
Unknown_Line_Type
  70
32
  10
2106490.88
  20
2888120.81
  30
2998
  0
VERTEX
  8
Unknown_Line_Type
  70
32
  10
2106484.73
  20
2888127.69
  30
2998
  0
VERTEX
  8
Unknown_Line_Type
  70
32
  10
2106484.10
  20
2888133.94
  30
2998
  0
VERTEX
  8
Unknown_Line_Type
  70
32
  10
2106484.98
  20
2888144.22
  30
2998
  0
VERTEX
  8
Unknown_Line_Type
  70
32
  10
2106482.86
  20
2888147.63
  30
2998
  0
VERTEX
  8
Unknown_Line_Type
  70
32
  10
2106481.05
  20
2888153.33
  30
2998
  0
VERTEX
  8
Unknown_Line_Type
  70
32
  10
2106476.55
  20
2888157.56
  30
2998
  0
VERTEX
  8
Unknown_Line_Type
  70
32
  10
2106476.95
  20
2888160.54
  30
2998
  0
VERTEX
  8
Unknown_Line_Type
  70
32
  10
2106479.62
  20
2888162.98
  30
2998
  0
VERTEX
  8
Unknown_Line_Type
  70
32
  10
2106480.77
  20
2888166.53
  30
2998
  0
VERTEX
  8
Unknown_Line_Type
  70
32
  10
2106472.97
  20
2888172.29
  30
2998
  0
VERTEX
  8
Unknown_Line_Type
  70
32
  10
2106470.66
  20
2888179.99
  30
2998
  0
VERTEX
  8
Unknown_Line_Type
  70
32
  10
2106471.61
  20
2888181.64
  30
2998
  0
VERTEX
  8
Unknown_Line_Type
  70
32
  10
2106464.50
  20
2888190.34
  30
2998
  0
VERTEX
  8
Unknown_Line_Type
  70
32
  10
2106457.73
  20
2888190.07
  30
2998
  0
VERTEX
  8
Unknown_Line_Type
  70
32
  10
2106458.97
  20
2888196.52
  30
2998
  0
VERTEX
  8
Unknown_Line_Type
  70
32
  10
2106456.94
  20
2888199.32
  30
2998
  0
VERTEX
  8
Unknown_Line_Type
  70
32
  10
2106451.74
  20
2888201.31
  30
2998
  0
VERTEX
  8
Unknown_Line_Type
  70
32
  10
2106443.75
  20
2888204.61
  30
2998
  0
VERTEX
  8
Unknown_Line_Type
  70
32
  10
2106442.84
  20
2888205.76
  30
2998
  0
SEQEND
  8
Unknown_Line_Type
  0
POLYLINE
  8
Unknown_Line_Type
  70
8
  66
1
 62
0
 39
0
  0
VERTEX
  8
Unknown_Line_Type
  70
32
  10
2106121.44
  20
2888000.21
  30
2998
  0
VERTEX
  8
Unknown_Line_Type
  70
32
  10
2106121.25
  20
2888000.00
  30
2998
  0
VERTEX
  8
Unknown_Line_Type
  70
32
  10
2106121.07
  20
2887999.98
  30
2998
  0
SEQEND
  8
Unknown_Line_Type
  0
POLYLINE
  8
Unknown_Line_Type
  70
8
  66
1
 62
0
 39
0
  0
VERTEX
  8
Unknown_Line_Type
  70
32
  10
2106116.80
  20
2887997.24
  30
2998
  0
VERTEX
  8
Unknown_Line_Type
  70
32
  10
2106114.48
  20
2887991.15
  30
2998
  0
VERTEX
  8
Unknown_Line_Type
  70
32
  10
2106113.63
  20
2887979.27
  30
2998
  0
VERTEX
  8
Unknown_Line_Type
  70
32
  10
2106109.32
  20
2887974.30
  30
2998
  0
VERTEX
  8
Unknown_Line_Type
  70
32
  10
2106103.56
  20
2887977.11
  30
2998
  0
VERTEX
  8
Unknown_Line_Type
  70
32
  10
2106096.05
  20
2887976.43
  30
2998
  0
VERTEX
  8
Unknown_Line_Type
  70
32
  10
2106086.49
  20
2887974.09
  30
2998
  0
VERTEX
  8
Unknown_Line_Type
  70
32
  10
2106082.35
  20
2887967.46
  30
2998
  0
VERTEX
  8
Unknown_Line_Type
  70
32
  10
2106078.03
  20
2887966.56
  30
2998
  0
VERTEX
  8
Unknown_Line_Type
  70
32
  10
2106078.25
  20
2887967.91
  30
2998
  0
VERTEX
  8
Unknown_Line_Type
  70
32
  10
2106077.36
  20
2887972.02
  30
2998
  0
SEQEND
  8
Unknown_Line_Type
  0
POLYLINE
  8
Unknown_Line_Type
  70
8
  66
1
 62
0
 39
0
  0
VERTEX
  8
Unknown_Line_Type
  70
32
  10
2106246.82
  20
2887635.00
  30
3000
  0
VERTEX
  8
Unknown_Line_Type
  70
32
  10
2106247.29
  20
2887639.39
  30
3000
  0
VERTEX
  8
Unknown_Line_Type
  70
32
  10
2106251.07
  20
2887647.45
  30
3000
  0
VERTEX
  8
Unknown_Line_Type
  70
32
  10
2106254.41
  20
2887652.26
  30
3000
  0
VERTEX
  8
Unknown_Line_Type
  70
32
  10
2106258.12
  20
2887659.88
  30
3000
  0
VERTEX
  8
Unknown_Line_Type
  70
32
  10
2106259.67
  20
2887662.44
  30
3000
  0
VERTEX
  8
Unknown_Line_Type
  70
32
  10
2106259.44
  20
2887666.71
  30
3000
  0
VERTEX
  8
Unknown_Line_Type
  70
32
  10
2106256.85
  20
2887677.22
  30
3000
  0
VERTEX
  8
Unknown_Line_Type
  70
32
  10
2106257.85
  20
2887685.23
  30
3000
  0
VERTEX
  8
Unknown_Line_Type
  70
32
  10
2106260.00
  20
2887687.29
  30
3000
  0
VERTEX
  8
Unknown_Line_Type
  70
32
  10
2106261.39
  20
2887691.16
  30
3000
  0
VERTEX
  8
Unknown_Line_Type
  70
32
  10
2106261.48
  20
2887694.30
  30
3000
  0
VERTEX
  8
Unknown_Line_Type
  70
32
  10
2106262.96
  20
2887696.31
  30
3000
  0
VERTEX
  8
Unknown_Line_Type
  70
32
  10
2106261.33
  20
2887700.28
  30
3000
  0
VERTEX
  8
Unknown_Line_Type
  70
32
  10
2106260.65
  20
2887708.57
  30
3000
  0
VERTEX
  8
Unknown_Line_Type
  70
32
  10
2106262.24
  20
2887713.54
  30
3000
  0
VERTEX
  8
Unknown_Line_Type
  70
32
  10
2106263.82
  20
2887714.90
  30
3000
  0
VERTEX
  8
Unknown_Line_Type
  70
32
  10
2106266.10
  20
2887721.32
  30
3000
  0
VERTEX
  8
Unknown_Line_Type
  70
32
  10
2106264.55
  20
2887725.72
  30
3000
  0
VERTEX
  8
Unknown_Line_Type
  70
32
  10
2106267.26
  20
2887728.54
  30
3000
  0
VERTEX
  8
Unknown_Line_Type
  70
32
  10
2106267.57
  20
2887738.84
  30
3000
  0
VERTEX
  8
Unknown_Line_Type
  70
32
  10
2106266.18
  20
2887746.26
  30
3000
  0
VERTEX
  8
Unknown_Line_Type
  70
32
  10
2106268.48
  20
2887747.58
  30
3000
  0
VERTEX
  8
Unknown_Line_Type
  70
32
  10
2106269.21
  20
2887749.46
  30
3000
  0
VERTEX
  8
Unknown_Line_Type
  70
32
  10
2106269.55
  20
2887754.60
  30
3000
  0
VERTEX
  8
Unknown_Line_Type
  70
32
  10
2106270.69
  20
2887762.43
  30
3000
  0
VERTEX
  8
Unknown_Line_Type
  70
32
  10
2106268.50
  20
2887767.08
  30
3000
  0
VERTEX
  8
Unknown_Line_Type
  70
32
  10
2106270.43
  20
2887771.49
  30
3000
  0
VERTEX
  8
Unknown_Line_Type
  70
32
  10
2106267.88
  20
2887778.95
  30
3000
  0
VERTEX
  8
Unknown_Line_Type
  70
32
  10
2106268.08
  20
2887781.02
  30
3000
  0
VERTEX
  8
Unknown_Line_Type
  70
32
  10
2106267.40
  20
2887787.84
  30
3000
  0
VERTEX
  8
Unknown_Line_Type
  70
32
  10
2106276.27
  20
2887792.12
  30
3000
  0
VERTEX
  8
Unknown_Line_Type
  70
32
  10
2106278.71
  20
2887794.21
  30
3000
  0
VERTEX
  8
Unknown_Line_Type
  70
32
  10
2106281.13
  20
2887795.25
  30
3000
  0
VERTEX
  8
Unknown_Line_Type
  70
32
  10
2106280.23
  20
2887798.37
  30
3000
  0
VERTEX
  8
Unknown_Line_Type
  70
32
  10
2106277.08
  20
2887799.78
  30
3000
  0
VERTEX
  8
Unknown_Line_Type
  70
32
  10
2106270.18
  20
2887800.12
  30
3000
  0
VERTEX
  8
Unknown_Line_Type
  70
32
  10
2106272.91
  20
2887803.91
  30
3000
  0
VERTEX
  8
Unknown_Line_Type
  70
32
  10
2106272.79
  20
2887806.35
  30
3000
  0
VERTEX
  8
Unknown_Line_Type
  70
32
  10
2106276.81
  20
2887820.05
  30
3000
  0
VERTEX
  8
Unknown_Line_Type
  70
32
  10
2106277.79
  20
2887822.14
  30
3000
  0
VERTEX
  8
Unknown_Line_Type
  70
32
  10
2106278.25
  20
2887823.50
  30
3000
  0
VERTEX
  8
Unknown_Line_Type
  70
32
  10
2106280.05
  20
2887828.41
  30
3000
  0
VERTEX
  8
Unknown_Line_Type
  70
32
  10
2106285.65
  20
2887845.09
  30
3000
  0
VERTEX
  8
Unknown_Line_Type
  70
32
  10
2106285.02
  20
2887846.21
  30
3000
  0
VERTEX
  8
Unknown_Line_Type
  70
32
  10
2106284.67
  20
2887855.96
  30
3000
  0
VERTEX
  8
Unknown_Line_Type
  70
32
  10
2106282.83
  20
2887861.87
  30
3000
  0
VERTEX
  8
Unknown_Line_Type
  70
32
  10
2106285.12
  20
2887866.61
  30
3000
  0
VERTEX
  8
Unknown_Line_Type
  70
32
  10
2106285.89
  20
2887870.51
  30
3000
  0
VERTEX
  8
Unknown_Line_Type
  70
32
  10
2106289.58
  20
2887876.68
  30
3000
  0
VERTEX
  8
Unknown_Line_Type
  70
32
  10
2106291.32
  20
2887880.79
  30
3000
  0
VERTEX
  8
Unknown_Line_Type
  70
32
  10
2106291.40
  20
2887881.57
  30
3000
  0
VERTEX
  8
Unknown_Line_Type
  70
32
  10
2106294.43
  20
2887887.36
  30
3000
  0
VERTEX
  8
Unknown_Line_Type
  70
32
  10
2106294.01
  20
2887896.87
  30
3000
  0
VERTEX
  8
Unknown_Line_Type
  70
32
  10
2106293.68
  20
2887902.19
  30
3000
  0
VERTEX
  8
Unknown_Line_Type
  70
32
  10
2106292.52
  20
2887906.06
  30
3000
  0
VERTEX
  8
Unknown_Line_Type
  70
32
  10
2106294.36
  20
2887908.89
  30
3000
  0
VERTEX
  8
Unknown_Line_Type
  70
32
  10
2106298.28
  20
2887917.78
  30
3000
  0
VERTEX
  8
Unknown_Line_Type
  70
32
  10
2106301.89
  20
2887921.89
  30
3000
  0
VERTEX
  8
Unknown_Line_Type
  70
32
  10
2106307.63
  20
2887933.19
  30
3000
  0
VERTEX
  8
Unknown_Line_Type
  70
32
  10
2106310.37
  20
2887934.60
  30
3000
  0
VERTEX
  8
Unknown_Line_Type
  70
32
  10
2106313.37
  20
2887941.98
  30
3000
  0
VERTEX
  8
Unknown_Line_Type
  70
32
  10
2106313.80
  20
2887948.48
  30
3000
  0
VERTEX
  8
Unknown_Line_Type
  70
32
  10
2106312.66
  20
2887956.82
  30
3000
  0
VERTEX
  8
Unknown_Line_Type
  70
32
  10
2106313.99
  20
2887959.53
  30
3000
  0
VERTEX
  8
Unknown_Line_Type
  70
32
  10
2106314.85
  20
2887967.64
  30
3000
  0
VERTEX
  8
Unknown_Line_Type
  70
32
  10
2106315.12
  20
2887974.85
  30
3000
  0
VERTEX
  8
Unknown_Line_Type
  70
32
  10
2106316.56
  20
2887981.02
  30
3000
  0
VERTEX
  8
Unknown_Line_Type
  70
32
  10
2106316.17
  20
2887988.53
  30
3000
  0
VERTEX
  8
Unknown_Line_Type
  70
32
  10
2106319.13
  20
2887996.89
  30
3000
  0
VERTEX
  8
Unknown_Line_Type
  70
32
  10
2106318.91
  20
2888000.18
  30
3000
  0
VERTEX
  8
Unknown_Line_Type
  70
32
  10
2106312.37
  20
2888005.75
  30
3000
  0
VERTEX
  8
Unknown_Line_Type
  70
32
  10
2106310.41
  20
2888008.40
  30
3000
  0
VERTEX
  8
Unknown_Line_Type
  70
32
  10
2106309.26
  20
2888010.02
  30
3000
  0
VERTEX
  8
Unknown_Line_Type
  70
32
  10
2106308.12
  20
2888011.53
  30
3000
  0
VERTEX
  8
Unknown_Line_Type
  70
32
  10
2106300.87
  20
2888017.12
  30
3000
  0
VERTEX
  8
Unknown_Line_Type
  70
32
  10
2106292.04
  20
2888024.97
  30
3000
  0
VERTEX
  8
Unknown_Line_Type
  70
32
  10
2106289.59
  20
2888028.60
  30
3000
  0
VERTEX
  8
Unknown_Line_Type
  70
32
  10
2106281.64
  20
2888035.23
  30
3000
  0
VERTEX
  8
Unknown_Line_Type
  70
32
  10
2106278.44
  20
2888038.57
  30
3000
  0
VERTEX
  8
Unknown_Line_Type
  70
32
  10
2106277.90
  20
2888045.43
  30
3000
  0
VERTEX
  8
Unknown_Line_Type
  70
32
  10
2106278.22
  20
2888057.98
  30
3000
  0
VERTEX
  8
Unknown_Line_Type
  70
32
  10
2106274.06
  20
2888061.40
  30
3000
  0
VERTEX
  8
Unknown_Line_Type
  70
32
  10
2106273.29
  20
2888065.34
  30
3000
  0
VERTEX
  8
Unknown_Line_Type
  70
32
  10
2106273.11
  20
2888071.01
  30
3000
  0
VERTEX
  8
Unknown_Line_Type
  70
32
  10
2106276.24
  20
2888076.58
  30
3000
  0
VERTEX
  8
Unknown_Line_Type
  70
32
  10
2106279.41
  20
2888080.22
  30
3000
  0
VERTEX
  8
Unknown_Line_Type
  70
32
  10
2106281.36
  20
2888084.18
  30
3000
  0
VERTEX
  8
Unknown_Line_Type
  70
32
  10
2106281.31
  20
2888085.43
  30
3000
  0
VERTEX
  8
Unknown_Line_Type
  70
32
  10
2106282.92
  20
2888087.06
  30
3000
  0
VERTEX
  8
Unknown_Line_Type
  70
32
  10
2106290.67
  20
2888095.64
  30
3000
  0
VERTEX
  8
Unknown_Line_Type
  70
32
  10
2106297.07
  20
2888097.85
  30
3000
  0
VERTEX
  8
Unknown_Line_Type
  70
32
  10
2106298.84
  20
2888098.12
  30
3000
  0
VERTEX
  8
Unknown_Line_Type
  70
32
  10
2106307.06
  20
2888096.66
  30
3000
  0
VERTEX
  8
Unknown_Line_Type
  70
32
  10
2106313.67
  20
2888097.52
  30
3000
  0
VERTEX
  8
Unknown_Line_Type
  70
32
  10
2106320.98
  20
2888099.09
  30
3000
  0
VERTEX
  8
Unknown_Line_Type
  70
32
  10
2106324.35
  20
2888095.84
  30
3000
  0
VERTEX
  8
Unknown_Line_Type
  70
32
  10
2106328.86
  20
2888092.21
  30
3000
  0
VERTEX
  8
Unknown_Line_Type
  70
32
  10
2106332.15
  20
2888088.77
  30
3000
  0
VERTEX
  8
Unknown_Line_Type
  70
32
  10
2106337.15
  20
2888084.20
  30
3000
  0
VERTEX
  8
Unknown_Line_Type
  70
32
  10
2106351.14
  20
2888083.15
  30
3000
  0
VERTEX
  8
Unknown_Line_Type
  70
32
  10
2106348.95
  20
2888077.62
  30
3000
  0
VERTEX
  8
Unknown_Line_Type
  70
32
  10
2106351.71
  20
2888075.89
  30
3000
  0
VERTEX
  8
Unknown_Line_Type
  70
32
  10
2106350.29
  20
2888071.85
  30
3000
  0
VERTEX
  8
Unknown_Line_Type
  70
32
  10
2106345.85
  20
2888062.31
  30
3000
  0
VERTEX
  8
Unknown_Line_Type
  70
32
  10
2106346.39
  20
2888057.40
  30
3000
  0
VERTEX
  8
Unknown_Line_Type
  70
32
  10
2106349.46
  20
2888056.14
  30
3000
  0
VERTEX
  8
Unknown_Line_Type
  70
32
  10
2106357.22
  20
2888053.13
  30
3000
  0
VERTEX
  8
Unknown_Line_Type
  70
32
  10
2106359.32
  20
2888052.21
  30
3000
  0
VERTEX
  8
Unknown_Line_Type
  70
32
  10
2106364.44
  20
2888041.63
  30
3000
  0
VERTEX
  8
Unknown_Line_Type
  70
32
  10
2106366.70
  20
2888037.77
  30
3000
  0
VERTEX
  8
Unknown_Line_Type
  70
32
  10
2106365.88
  20
2888033.72
  30
3000
  0
VERTEX
  8
Unknown_Line_Type
  70
32
  10
2106366.97
  20
2888027.01
  30
3000
  0
VERTEX
  8
Unknown_Line_Type
  70
32
  10
2106368.01
  20
2888016.84
  30
3000
  0
VERTEX
  8
Unknown_Line_Type
  70
32
  10
2106375.42
  20
2888014.10
  30
3000
  0
VERTEX
  8
Unknown_Line_Type
  70
32
  10
2106380.79
  20
2888010.81
  30
3000
  0
VERTEX
  8
Unknown_Line_Type
  70
32
  10
2106385.81
  20
2888004.24
  30
3000
  0
VERTEX
  8
Unknown_Line_Type
  70
32
  10
2106392.82
  20
2888002.91
  30
3000
  0
VERTEX
  8
Unknown_Line_Type
  70
32
  10
2106400.29
  20
2888000.48
  30
3000
  0
VERTEX
  8
Unknown_Line_Type
  70
32
  10
2106405.69
  20
2887997.04
  30
3000
  0
VERTEX
  8
Unknown_Line_Type
  70
32
  10
2106412.54
  20
2887993.75
  30
3000
  0
VERTEX
  8
Unknown_Line_Type
  70
32
  10
2106420.94
  20
2887990.39
  30
3000
  0
VERTEX
  8
Unknown_Line_Type
  70
32
  10
2106428.86
  20
2887988.43
  30
3000
  0
VERTEX
  8
Unknown_Line_Type
  70
32
  10
2106432.98
  20
2887982.23
  30
3000
  0
VERTEX
  8
Unknown_Line_Type
  70
32
  10
2106437.65
  20
2887980.78
  30
3000
  0
VERTEX
  8
Unknown_Line_Type
  70
32
  10
2106440.47
  20
2887982.75
  30
3000
  0
VERTEX
  8
Unknown_Line_Type
  70
32
  10
2106446.37
  20
2887987.95
  30
3000
  0
VERTEX
  8
Unknown_Line_Type
  70
32
  10
2106452.23
  20
2887987.09
  30
3000
  0
VERTEX
  8
Unknown_Line_Type
  70
32
  10
2106453.26
  20
2887985.99
  30
3000
  0
VERTEX
  8
Unknown_Line_Type
  70
32
  10
2106466.45
  20
2887985.44
  30
3000
  0
VERTEX
  8
Unknown_Line_Type
  70
32
  10
2106470.24
  20
2887989.44
  30
3000
  0
VERTEX
  8
Unknown_Line_Type
  70
32
  10
2106476.19
  20
2887983.75
  30
3000
  0
VERTEX
  8
Unknown_Line_Type
  70
32
  10
2106482.97
  20
2887982.15
  30
3000
  0
VERTEX
  8
Unknown_Line_Type
  70
32
  10
2106487.56
  20
2887980.11
  30
3000
  0
VERTEX
  8
Unknown_Line_Type
  70
32
  10
2106490.44
  20
2887979.85
  30
3000
  0
VERTEX
  8
Unknown_Line_Type
  70
32
  10
2106492.82
  20
2887980.69
  30
3000
  0
VERTEX
  8
Unknown_Line_Type
  70
32
  10
2106505.89
  20
2887982.75
  30
3000
  0
VERTEX
  8
Unknown_Line_Type
  70
32
  10
2106508.10
  20
2887982.68
  30
3000
  0
VERTEX
  8
Unknown_Line_Type
  70
32
  10
2106512.84
  20
2887984.04
  30
3000
  0
VERTEX
  8
Unknown_Line_Type
  70
32
  10
2106516.51
  20
2887989.82
  30
3000
  0
VERTEX
  8
Unknown_Line_Type
  70
32
  10
2106516.92
  20
2887994.28
  30
3000
  0
VERTEX
  8
Unknown_Line_Type
  70
32
  10
2106521.69
  20
2887994.77
  30
3000
  0
VERTEX
  8
Unknown_Line_Type
  70
32
  10
2106529.28
  20
2887994.58
  30
3000
  0
VERTEX
  8
Unknown_Line_Type
  70
32
  10
2106542.35
  20
2887994.69
  30
3000
  0
VERTEX
  8
Unknown_Line_Type
  70
32
  10
2106550.28
  20
2887999.25
  30
3000
  0
VERTEX
  8
Unknown_Line_Type
  70
32
  10
2106551.21
  20
2888002.11
  30
3000
  0
VERTEX
  8
Unknown_Line_Type
  70
32
  10
2106554.15
  20
2888003.49
  30
3000
  0
VERTEX
  8
Unknown_Line_Type
  70
32
  10
2106563.45
  20
2888001.76
  30
3000
  0
VERTEX
  8
Unknown_Line_Type
  70
32
  10
2106569.44
  20
2888002.24
  30
3000
  0
VERTEX
  8
Unknown_Line_Type
  70
32
  10
2106571.12
  20
2888003.38
  30
3000
  0
VERTEX
  8
Unknown_Line_Type
  70
32
  10
2106574.23
  20
2888004.89
  30
3000
  0
VERTEX
  8
Unknown_Line_Type
  70
32
  10
2106579.56
  20
2888009.14
  30
3000
  0
VERTEX
  8
Unknown_Line_Type
  70
32
  10
2106586.52
  20
2888010.49
  30
3000
  0
VERTEX
  8
Unknown_Line_Type
  70
32
  10
2106588.13
  20
2888002.60
  30
3000
  0
VERTEX
  8
Unknown_Line_Type
  70
32
  10
2106589.87
  20
2888001.02
  30
3000
  0
VERTEX
  8
Unknown_Line_Type
  70
32
  10
2106594.24
  20
2888003.69
  30
3000
  0
VERTEX
  8
Unknown_Line_Type
  70
32
  10
2106594.48
  20
2888007.56
  30
3000
  0
VERTEX
  8
Unknown_Line_Type
  70
32
  10
2106594.47
  20
2888012.49
  30
3000
  0
VERTEX
  8
Unknown_Line_Type
  70
32
  10
2106601.69
  20
2888017.53
  30
3000
  0
VERTEX
  8
Unknown_Line_Type
  70
32
  10
2106603.83
  20
2888017.25
  30
3000
  0
VERTEX
  8
Unknown_Line_Type
  70
32
  10
2106609.57
  20
2888015.53
  30
3000
  0
VERTEX
  8
Unknown_Line_Type
  70
32
  10
2106610.64
  20
2888027.44
  30
3000
  0
VERTEX
  8
Unknown_Line_Type
  70
32
  10
2106608.00
  20
2888033.74
  30
3000
  0
VERTEX
  8
Unknown_Line_Type
  70
32
  10
2106602.51
  20
2888045.51
  30
3000
  0
VERTEX
  8
Unknown_Line_Type
  70
32
  10
2106600.99
  20
2888054.97
  30
3000
  0
VERTEX
  8
Unknown_Line_Type
  70
32
  10
2106594.82
  20
2888060.32
  30
3000
  0
VERTEX
  8
Unknown_Line_Type
  70
32
  10
2106593.45
  20
2888060.74
  30
3000
  0
VERTEX
  8
Unknown_Line_Type
  70
32
  10
2106589.97
  20
2888060.99
  30
3000
  0
VERTEX
  8
Unknown_Line_Type
  70
32
  10
2106585.56
  20
2888069.77
  30
3000
  0
VERTEX
  8
Unknown_Line_Type
  70
32
  10
2106585.76
  20
2888078.09
  30
3000
  0
VERTEX
  8
Unknown_Line_Type
  70
32
  10
2106583.80
  20
2888083.14
  30
3000
  0
VERTEX
  8
Unknown_Line_Type
  70
32
  10
2106586.43
  20
2888086.83
  30
3000
  0
VERTEX
  8
Unknown_Line_Type
  70
32
  10
2106584.33
  20
2888092.03
  30
3000
  0
VERTEX
  8
Unknown_Line_Type
  70
32
  10
2106582.77
  20
2888099.34
  30
3000
  0
VERTEX
  8
Unknown_Line_Type
  70
32
  10
2106580.83
  20
2888104.29
  30
3000
  0
VERTEX
  8
Unknown_Line_Type
  70
32
  10
2106571.09
  20
2888104.30
  30
3000
  0
VERTEX
  8
Unknown_Line_Type
  70
32
  10
2106569.97
  20
2888102.83
  30
3000
  0
VERTEX
  8
Unknown_Line_Type
  70
32
  10
2106566.94
  20
2888104.65
  30
3000
  0
VERTEX
  8
Unknown_Line_Type
  70
32
  10
2106563.99
  20
2888105.87
  30
3000
  0
VERTEX
  8
Unknown_Line_Type
  70
32
  10
2106559.58
  20
2888110.80
  30
3000
  0
VERTEX
  8
Unknown_Line_Type
  70
32
  10
2106555.59
  20
2888102.54
  30
3000
  0
VERTEX
  8
Unknown_Line_Type
  70
32
  10
2106556.10
  20
2888101.71
  30
3000
  0
VERTEX
  8
Unknown_Line_Type
  70
32
  10
2106558.57
  20
2888097.04
  30
3000
  0
VERTEX
  8
Unknown_Line_Type
  70
32
  10
2106552.25
  20
2888098.62
  30
3000
  0
VERTEX
  8
Unknown_Line_Type
  70
32
  10
2106550.92
  20
2888100.04
  30
3000
  0
VERTEX
  8
Unknown_Line_Type
  70
32
  10
2106549.46
  20
2888103.66
  30
3000
  0
VERTEX
  8
Unknown_Line_Type
  70
32
  10
2106546.48
  20
2888113.20
  30
3000
  0
VERTEX
  8
Unknown_Line_Type
  70
32
  10
2106541.08
  20
2888114.35
  30
3000
  0
VERTEX
  8
Unknown_Line_Type
  70
32
  10
2106538.44
  20
2888124.29
  30
3000
  0
VERTEX
  8
Unknown_Line_Type
  70
32
  10
2106537.69
  20
2888128.06
  30
3000
  0
VERTEX
  8
Unknown_Line_Type
  70
32
  10
2106535.85
  20
2888128.65
  30
3000
  0
VERTEX
  8
Unknown_Line_Type
  70
32
  10
2106534.20
  20
2888130.78
  30
3000
  0
VERTEX
  8
Unknown_Line_Type
  70
32
  10
2106531.90
  20
2888132.02
  30
3000
  0
VERTEX
  8
Unknown_Line_Type
  70
32
  10
2106524.75
  20
2888137.88
  30
3000
  0
VERTEX
  8
Unknown_Line_Type
  70
32
  10
2106521.67
  20
2888137.18
  30
3000
  0
VERTEX
  8
Unknown_Line_Type
  70
32
  10
2106512.16
  20
2888140.69
  30
3000
  0
VERTEX
  8
Unknown_Line_Type
  70
32
  10
2106510.66
  20
2888144.59
  30
3000
  0
VERTEX
  8
Unknown_Line_Type
  70
32
  10
2106510.63
  20
2888149.25
  30
3000
  0
VERTEX
  8
Unknown_Line_Type
  70
32
  10
2106510.03
  20
2888149.99
  30
3000
  0
VERTEX
  8
Unknown_Line_Type
  70
32
  10
2106509.73
  20
2888150.62
  30
3000
  0
VERTEX
  8
Unknown_Line_Type
  70
32
  10
2106507.01
  20
2888149.03
  30
3000
  0
VERTEX
  8
Unknown_Line_Type
  70
32
  10
2106499.10
  20
2888157.78
  30
3000
  0
VERTEX
  8
Unknown_Line_Type
  70
32
  10
2106496.86
  20
2888162.89
  30
3000
  0
VERTEX
  8
Unknown_Line_Type
  70
32
  10
2106496.92
  20
2888168.21
  30
3000
  0
VERTEX
  8
Unknown_Line_Type
  70
32
  10
2106494.72
  20
2888168.58
  30
3000
  0
VERTEX
  8
Unknown_Line_Type
  70
32
  10
2106495.12
  20
2888170.55
  30
3000
  0
VERTEX
  8
Unknown_Line_Type
  70
32
  10
2106495.05
  20
2888173.44
  30
3000
  0
VERTEX
  8
Unknown_Line_Type
  70
32
  10
2106487.24
  20
2888180.38
  30
3000
  0
VERTEX
  8
Unknown_Line_Type
  70
32
  10
2106483.36
  20
2888184.19
  30
3000
  0
VERTEX
  8
Unknown_Line_Type
  70
32
  10
2106483.63
  20
2888185.75
  30
3000
  0
VERTEX
  8
Unknown_Line_Type
  70
32
  10
2106480.06
  20
2888190.06
  30
3000
  0
VERTEX
  8
Unknown_Line_Type
  70
32
  10
2106473.09
  20
2888198.95
  30
3000
  0
VERTEX
  8
Unknown_Line_Type
  70
32
  10
2106471.25
  20
2888203.40
  30
3000
  0
VERTEX
  8
Unknown_Line_Type
  70
32
  10
2106466.83
  20
2888207.94
  30
3000
  0
VERTEX
  8
Unknown_Line_Type
  70
32
  10
2106464.44
  20
2888210.98
  30
3000
  0
VERTEX
  8
Unknown_Line_Type
  70
32
  10
2106461.05
  20
2888214.30
  30
3000
  0
VERTEX
  8
Unknown_Line_Type
  70
32
  10
2106458.12
  20
2888215.53
  30
3000
  0
SEQEND
  8
Unknown_Line_Type
  0
POLYLINE
  8
Unknown_Line_Type
  70
8
  66
1
 62
0
 39
0
  0
VERTEX
  8
Unknown_Line_Type
  70
32
  10
2106286.68
  20
2887635.00
  30
3002
  0
VERTEX
  8
Unknown_Line_Type
  70
32
  10
2106286.28
  20
2887636.68
  30
3002
  0
VERTEX
  8
Unknown_Line_Type
  70
32
  10
2106286.49
  20
2887645.12
  30
3002
  0
VERTEX
  8
Unknown_Line_Type
  70
32
  10
2106282.49
  20
2887651.19
  30
3002
  0
VERTEX
  8
Unknown_Line_Type
  70
32
  10
2106285.31
  20
2887656.29
  30
3002
  0
VERTEX
  8
Unknown_Line_Type
  70
32
  10
2106287.53
  20
2887661.49
  30
3002
  0
VERTEX
  8
Unknown_Line_Type
  70
32
  10
2106288.28
  20
2887670.82
  30
3002
  0
VERTEX
  8
Unknown_Line_Type
  70
32
  10
2106294.00
  20
2887677.79
  30
3002
  0
VERTEX
  8
Unknown_Line_Type
  70
32
  10
2106294.44
  20
2887680.24
  30
3002
  0
VERTEX
  8
Unknown_Line_Type
  70
32
  10
2106289.49
  20
2887689.85
  30
3002
  0
VERTEX
  8
Unknown_Line_Type
  70
32
  10
2106288.52
  20
2887696.33
  30
3002
  0
VERTEX
  8
Unknown_Line_Type
  70
32
  10
2106289.64
  20
2887705.47
  30
3002
  0
VERTEX
  8
Unknown_Line_Type
  70
32
  10
2106291.88
  20
2887709.68
  30
3002
  0
VERTEX
  8
Unknown_Line_Type
  70
32
  10
2106293.70
  20
2887717.52
  30
3002
  0
VERTEX
  8
Unknown_Line_Type
  70
32
  10
2106286.10
  20
2887720.88
  30
3002
  0
VERTEX
  8
Unknown_Line_Type
  70
32
  10
2106286.05
  20
2887722.44
  30
3002
  0
VERTEX
  8
Unknown_Line_Type
  70
32
  10
2106286.22
  20
2887727.49
  30
3002
  0
VERTEX
  8
Unknown_Line_Type
  70
32
  10
2106289.64
  20
2887733.94
  30
3002
  0
VERTEX
  8
Unknown_Line_Type
  70
32
  10
2106290.64
  20
2887739.13
  30
3002
  0
VERTEX
  8
Unknown_Line_Type
  70
32
  10
2106292.03
  20
2887743.88
  30
3002
  0
VERTEX
  8
Unknown_Line_Type
  70
32
  10
2106288.12
  20
2887751.05
  30
3002
  0
VERTEX
  8
Unknown_Line_Type
  70
32
  10
2106284.24
  20
2887752.49
  30
3002
  0
VERTEX
  8
Unknown_Line_Type
  70
32
  10
2106282.10
  20
2887755.42
  30
3002
  0
VERTEX
  8
Unknown_Line_Type
  70
32
  10
2106282.87
  20
2887760.81
  30
3002
  0
VERTEX
  8
Unknown_Line_Type
  70
32
  10
2106288.72
  20
2887769.84
  30
3002
  0
VERTEX
  8
Unknown_Line_Type
  70
32
  10
2106285.78
  20
2887774.56
  30
3002
  0
VERTEX
  8
Unknown_Line_Type
  70
32
  10
2106286.11
  20
2887780.83
  30
3002
  0
VERTEX
  8
Unknown_Line_Type
  70
32
  10
2106289.52
  20
2887782.25
  30
3002
  0
VERTEX
  8
Unknown_Line_Type
  70
32
  10
2106296.55
  20
2887785.61
  30
3002
  0
VERTEX
  8
Unknown_Line_Type
  70
32
  10
2106299.92
  20
2887790.23
  30
3002
  0
VERTEX
  8
Unknown_Line_Type
  70
32
  10
2106298.12
  20
2887798.69
  30
3002
  0
VERTEX
  8
Unknown_Line_Type
  70
32
  10
2106297.88
  20
2887804.89
  30
3002
  0
VERTEX
  8
Unknown_Line_Type
  70
32
  10
2106302.87
  20
2887812.68
  30
3002
  0
VERTEX
  8
Unknown_Line_Type
  70
32
  10
2106305.43
  20
2887814.95
  30
3002
  0
VERTEX
  8
Unknown_Line_Type
  70
32
  10
2106300.37
  20
2887823.80
  30
3002
  0
VERTEX
  8
Unknown_Line_Type
  70
32
  10
2106303.31
  20
2887827.50
  30
3002
  0
VERTEX
  8
Unknown_Line_Type
  70
32
  10
2106304.70
  20
2887830.08
  30
3002
  0
VERTEX
  8
Unknown_Line_Type
  70
32
  10
2106304.38
  20
2887839.55
  30
3002
  0
VERTEX
  8
Unknown_Line_Type
  70
32
  10
2106301.60
  20
2887845.17
  30
3002
  0
VERTEX
  8
Unknown_Line_Type
  70
32
  10
2106303.70
  20
2887849.58
  30
3002
  0
VERTEX
  8
Unknown_Line_Type
  70
32
  10
2106303.66
  20
2887853.50
  30
3002
  0
VERTEX
  8
Unknown_Line_Type
  70
32
  10
2106310.57
  20
2887866.39
  30
3002
  0
VERTEX
  8
Unknown_Line_Type
  70
32
  10
2106313.01
  20
2887868.72
  30
3002
  0
VERTEX
  8
Unknown_Line_Type
  70
32
  10
2106313.06
  20
2887875.55
  30
3002
  0
VERTEX
  8
Unknown_Line_Type
  70
32
  10
2106311.12
  20
2887876.44
  30
3002
  0
VERTEX
  8
Unknown_Line_Type
  70
32
  10
2106314.03
  20
2887881.35
  30
3002
  0
VERTEX
  8
Unknown_Line_Type
  70
32
  10
2106319.06
  20
2887887.04
  30
3002
  0
VERTEX
  8
Unknown_Line_Type
  70
32
  10
2106322.34
  20
2887890.12
  30
3002
  0
VERTEX
  8
Unknown_Line_Type
  70
32
  10
2106321.32
  20
2887897.51
  30
3002
  0
VERTEX
  8
Unknown_Line_Type
  70
32
  10
2106318.74
  20
2887900.25
  30
3002
  0
VERTEX
  8
Unknown_Line_Type
  70
32
  10
2106321.66
  20
2887904.00
  30
3002
  0
VERTEX
  8
Unknown_Line_Type
  70
32
  10
2106323.71
  20
2887906.13
  30
3002
  0
VERTEX
  8
Unknown_Line_Type
  70
32
  10
2106332.20
  20
2887914.37
  30
3002
  0
VERTEX
  8
Unknown_Line_Type
  70
32
  10
2106331.98
  20
2887918.14
  30
3002
  0
VERTEX
  8
Unknown_Line_Type
  70
32
  10
2106337.78
  20
2887923.87
  30
3002
  0
VERTEX
  8
Unknown_Line_Type
  70
32
  10
2106333.81
  20
2887932.74
  30
3002
  0
VERTEX
  8
Unknown_Line_Type
  70
32
  10
2106333.08
  20
2887939.07
  30
3002
  0
VERTEX
  8
Unknown_Line_Type
  70
32
  10
2106334.77
  20
2887940.54
  30
3002
  0
VERTEX
  8
Unknown_Line_Type
  70
32
  10
2106340.78
  20
2887945.63
  30
3002
  0
VERTEX
  8
Unknown_Line_Type
  70
32
  10
2106349.34
  20
2887952.67
  30
3002
  0
VERTEX
  8
Unknown_Line_Type
  70
32
  10
2106350.09
  20
2887953.36
  30
3002
  0
VERTEX
  8
Unknown_Line_Type
  70
32
  10
2106350.15
  20
2887956.89
  30
3002
  0
VERTEX
  8
Unknown_Line_Type
  70
32
  10
2106351.62
  20
2887964.20
  30
3002
  0
VERTEX
  8
Unknown_Line_Type
  70
32
  10
2106352.78
  20
2887968.87
  30
3002
  0
VERTEX
  8
Unknown_Line_Type
  70
32
  10
2106359.98
  20
2887967.55
  30
3002
  0
VERTEX
  8
Unknown_Line_Type
  70
32
  10
2106366.68
  20
2887970.67
  30
3002
  0
VERTEX
  8
Unknown_Line_Type
  70
32
  10
2106378.61
  20
2887975.36
  30
3002
  0
VERTEX
  8
Unknown_Line_Type
  70
32
  10
2106384.69
  20
2887974.70
  30
3002
  0
VERTEX
  8
Unknown_Line_Type
  70
32
  10
2106395.23
  20
2887974.14
  30
3002
  0
VERTEX
  8
Unknown_Line_Type
  70
32
  10
2106393.31
  20
2887966.28
  30
3002
  0
VERTEX
  8
Unknown_Line_Type
  70
32
  10
2106400.54
  20
2887964.71
  30
3002
  0
VERTEX
  8
Unknown_Line_Type
  70
32
  10
2106406.53
  20
2887971.44
  30
3002
  0
VERTEX
  8
Unknown_Line_Type
  70
32
  10
2106407.01
  20
2887973.78
  30
3002
  0
VERTEX
  8
Unknown_Line_Type
  70
32
  10
2106412.89
  20
2887970.13
  30
3002
  0
VERTEX
  8
Unknown_Line_Type
  70
32
  10
2106414.44
  20
2887956.23
  30
3002
  0
VERTEX
  8
Unknown_Line_Type
  70
32
  10
2106417.99
  20
2887959.37
  30
3002
  0
VERTEX
  8
Unknown_Line_Type
  70
32
  10
2106425.42
  20
2887960.99
  30
3002
  0
VERTEX
  8
Unknown_Line_Type
  70
32
  10
2106432.00
  20
2887959.53
  30
3002
  0
VERTEX
  8
Unknown_Line_Type
  70
32
  10
2106435.77
  20
2887961.66
  30
3002
  0
VERTEX
  8
Unknown_Line_Type
  70
32
  10
2106440.14
  20
2887960.80
  30
3002
  0
VERTEX
  8
Unknown_Line_Type
  70
32
  10
2106452.04
  20
2887960.09
  30
3002
  0
VERTEX
  8
Unknown_Line_Type
  70
32
  10
2106453.19
  20
2887963.09
  30
3002
  0
VERTEX
  8
Unknown_Line_Type
  70
32
  10
2106458.43
  20
2887960.67
  30
3002
  0
VERTEX
  8
Unknown_Line_Type
  70
32
  10
2106460.25
  20
2887957.42
  30
3002
  0
VERTEX
  8
Unknown_Line_Type
  70
32
  10
2106462.16
  20
2887953.19
  30
3002
  0
VERTEX
  8
Unknown_Line_Type
  70
32
  10
2106468.35
  20
2887952.83
  30
3002
  0
VERTEX
  8
Unknown_Line_Type
  70
32
  10
2106471.06
  20
2887950.82
  30
3002
  0
VERTEX
  8
Unknown_Line_Type
  70
32
  10
2106471.77
  20
2887952.23
  30
3002
  0
VERTEX
  8
Unknown_Line_Type
  70
32
  10
2106478.79
  20
2887952.49
  30
3002
  0
VERTEX
  8
Unknown_Line_Type
  70
32
  10
2106480.83
  20
2887954.05
  30
3002
  0
VERTEX
  8
Unknown_Line_Type
  70
32
  10
2106484.75
  20
2887955.70
  30
3002
  0
VERTEX
  8
Unknown_Line_Type
  70
32
  10
2106489.57
  20
2887952.96
  30
3002
  0
VERTEX
  8
Unknown_Line_Type
  70
32
  10
2106497.59
  20
2887952.27
  30
3002
  0
VERTEX
  8
Unknown_Line_Type
  70
32
  10
2106504.23
  20
2887954.10
  30
3002
  0
VERTEX
  8
Unknown_Line_Type
  70
32
  10
2106508.44
  20
2887955.49
  30
3002
  0
VERTEX
  8
Unknown_Line_Type
  70
32
  10
2106518.34
  20
2887952.86
  30
3002
  0
VERTEX
  8
Unknown_Line_Type
  70
32
  10
2106524.61
  20
2887949.64
  30
3002
  0
VERTEX
  8
Unknown_Line_Type
  70
32
  10
2106527.53
  20
2887951.96
  30
3002
  0
VERTEX
  8
Unknown_Line_Type
  70
32
  10
2106535.53
  20
2887951.16
  30
3002
  0
VERTEX
  8
Unknown_Line_Type
  70
32
  10
2106544.96
  20
2887951.01
  30
3002
  0
VERTEX
  8
Unknown_Line_Type
  70
32
  10
2106546.09
  20
2887953.71
  30
3002
  0
VERTEX
  8
Unknown_Line_Type
  70
32
  10
2106547.44
  20
2887956.95
  30
3002
  0
VERTEX
  8
Unknown_Line_Type
  70
32
  10
2106552.55
  20
2887956.40
  30
3002
  0
VERTEX
  8
Unknown_Line_Type
  70
32
  10
2106557.17
  20
2887956.15
  30
3002
  0
VERTEX
  8
Unknown_Line_Type
  70
32
  10
2106566.76
  20
2887948.48
  30
3002
  0
VERTEX
  8
Unknown_Line_Type
  70
32
  10
2106573.54
  20
2887955.79
  30
3002
  0
VERTEX
  8
Unknown_Line_Type
  70
32
  10
2106578.08
  20
2887958.14
  30
3002
  0
VERTEX
  8
Unknown_Line_Type
  70
32
  10
2106577.81
  20
2887965.18
  30
3002
  0
VERTEX
  8
Unknown_Line_Type
  70
32
  10
2106584.01
  20
2887963.29
  30
3002
  0
VERTEX
  8
Unknown_Line_Type
  70
32
  10
2106580.55
  20
2887968.39
  30
3002
  0
VERTEX
  8
Unknown_Line_Type
  70
32
  10
2106596.72
  20
2887968.03
  30
3002
  0
VERTEX
  8
Unknown_Line_Type
  70
32
  10
2106599.79
  20
2887968.78
  30
3002
  0
VERTEX
  8
Unknown_Line_Type
  70
32
  10
2106605.29
  20
2887966.98
  30
3002
  0
VERTEX
  8
Unknown_Line_Type
  70
32
  10
2106606.60
  20
2887966.65
  30
3002
  0
VERTEX
  8
Unknown_Line_Type
  70
32
  10
2106612.76
  20
2887967.69
  30
3002
  0
VERTEX
  8
Unknown_Line_Type
  70
32
  10
2106619.44
  20
2887971.86
  30
3002
  0
VERTEX
  8
Unknown_Line_Type
  70
32
  10
2106622.48
  20
2887973.05
  30
3002
  0
VERTEX
  8
Unknown_Line_Type
  70
32
  10
2106625.73
  20
2887970.61
  30
3002
  0
VERTEX
  8
Unknown_Line_Type
  70
32
  10
2106625.96
  20
2887974.62
  30
3002
  0
VERTEX
  8
Unknown_Line_Type
  70
32
  10
2106627.56
  20
2887981.50
  30
3002
  0
VERTEX
  8
Unknown_Line_Type
  70
32
  10
2106630.12
  20
2887984.51
  30
3002
  0
VERTEX
  8
Unknown_Line_Type
  70
32
  10
2106633.72
  20
2887985.33
  30
3002
  0
VERTEX
  8
Unknown_Line_Type
  70
32
  10
2106638.48
  20
2887983.43
  30
3002
  0
VERTEX
  8
Unknown_Line_Type
  70
32
  10
2106639.20
  20
2887980.36
  30
3002
  0
VERTEX
  8
Unknown_Line_Type
  70
32
  10
2106640.13
  20
2887980.59
  30
3002
  0
VERTEX
  8
Unknown_Line_Type
  70
32
  10
2106644.06
  20
2887980.56
  30
3002
  0
VERTEX
  8
Unknown_Line_Type
  70
32
  10
2106645.14
  20
2887982.63
  30
3002
  0
VERTEX
  8
Unknown_Line_Type
  70
32
  10
2106644.29
  20
2887984.77
  30
3002
  0
VERTEX
  8
Unknown_Line_Type
  70
32
  10
2106650.05
  20
2887990.94
  30
3002
  0
VERTEX
  8
Unknown_Line_Type
  70
32
  10
2106653.76
  20
2887991.69
  30
3002
  0
VERTEX
  8
Unknown_Line_Type
  70
32
  10
2106657.56
  20
2887990.04
  30
3002
  0
VERTEX
  8
Unknown_Line_Type
  70
32
  10
2106662.39
  20
2887991.46
  30
3002
  0
VERTEX
  8
Unknown_Line_Type
  70
32
  10
2106665.97
  20
2887994.64
  30
3002
  0
VERTEX
  8
Unknown_Line_Type
  70
32
  10
2106668.29
  20
2887997.34
  30
3002
  0
VERTEX
  8
Unknown_Line_Type
  70
32
  10
2106675.63
  20
2888007.30
  30
3002
  0
VERTEX
  8
Unknown_Line_Type
  70
32
  10
2106677.83
  20
2888009.43
  30
3002
  0
VERTEX
  8
Unknown_Line_Type
  70
32
  10
2106689.41
  20
2888012.78
  30
3002
  0
VERTEX
  8
Unknown_Line_Type
  70
32
  10
2106692.63
  20
2888014.49
  30
3002
  0
VERTEX
  8
Unknown_Line_Type
  70
32
  10
2106692.90
  20
2888015.84
  30
3002
  0
VERTEX
  8
Unknown_Line_Type
  70
32
  10
2106693.23
  20
2888017.82
  30
3002
  0
VERTEX
  8
Unknown_Line_Type
  70
32
  10
2106692.51
  20
2888020.38
  30
3002
  0
VERTEX
  8
Unknown_Line_Type
  70
32
  10
2106693.34
  20
2888026.56
  30
3002
  0
VERTEX
  8
Unknown_Line_Type
  70
32
  10
2106696.49
  20
2888036.12
  30
3002
  0
VERTEX
  8
Unknown_Line_Type
  70
32
  10
2106702.14
  20
2888046.43
  30
3002
  0
VERTEX
  8
Unknown_Line_Type
  70
32
  10
2106711.38
  20
2888043.69
  30
3002
  0
VERTEX
  8
Unknown_Line_Type
  70
32
  10
2106710.03
  20
2888059.55
  30
3002
  0
VERTEX
  8
Unknown_Line_Type
  70
32
  10
2106703.56
  20
2888063.78
  30
3002
  0
VERTEX
  8
Unknown_Line_Type
  70
32
  10
2106699.63
  20
2888071.16
  30
3002
  0
VERTEX
  8
Unknown_Line_Type
  70
32
  10
2106700.46
  20
2888076.37
  30
3002
  0
VERTEX
  8
Unknown_Line_Type
  70
32
  10
2106705.77
  20
2888080.94
  30
3002
  0
VERTEX
  8
Unknown_Line_Type
  70
32
  10
2106702.36
  20
2888096.67
  30
3002
  0
VERTEX
  8
Unknown_Line_Type
  70
32
  10
2106700.03
  20
2888104.68
  30
3002
  0
VERTEX
  8
Unknown_Line_Type
  70
32
  10
2106705.05
  20
2888101.82
  30
3002
  0
VERTEX
  8
Unknown_Line_Type
  70
32
  10
2106711.48
  20
2888101.34
  30
3002
  0
VERTEX
  8
Unknown_Line_Type
  70
32
  10
2106709.30
  20
2888110.24
  30
3002
  0
VERTEX
  8
Unknown_Line_Type
  70
32
  10
2106706.72
  20
2888109.31
  30
3002
  0
VERTEX
  8
Unknown_Line_Type
  70
32
  10
2106702.49
  20
2888109.65
  30
3002
  0
VERTEX
  8
Unknown_Line_Type
  70
32
  10
2106694.59
  20
2888112.11
  30
3002
  0
VERTEX
  8
Unknown_Line_Type
  70
32
  10
2106690.49
  20
2888110.18
  30
3002
  0
VERTEX
  8
Unknown_Line_Type
  70
32
  10
2106682.88
  20
2888105.76
  30
3002
  0
VERTEX
  8
Unknown_Line_Type
  70
32
  10
2106680.54
  20
2888109.28
  30
3002
  0
VERTEX
  8
Unknown_Line_Type
  70
32
  10
2106677.15
  20
2888118.87
  30
3002
  0
VERTEX
  8
Unknown_Line_Type
  70
32
  10
2106672.20
  20
2888124.54
  30
3002
  0
VERTEX
  8
Unknown_Line_Type
  70
32
  10
2106670.87
  20
2888125.26
  30
3002
  0
VERTEX
  8
Unknown_Line_Type
  70
32
  10
2106661.65
  20
2888125.73
  30
3002
  0
VERTEX
  8
Unknown_Line_Type
  70
32
  10
2106652.53
  20
2888123.33
  30
3002
  0
VERTEX
  8
Unknown_Line_Type
  70
32
  10
2106647.49
  20
2888121.26
  30
3002
  0
VERTEX
  8
Unknown_Line_Type
  70
32
  10
2106646.33
  20
2888121.20
  30
3002
  0
VERTEX
  8
Unknown_Line_Type
  70
32
  10
2106638.10
  20
2888121.02
  30
3002
  0
VERTEX
  8
Unknown_Line_Type
  70
32
  10
2106634.55
  20
2888122.64
  30
3002
  0
VERTEX
  8
Unknown_Line_Type
  70
32
  10
2106631.18
  20
2888120.58
  30
3002
  0
VERTEX
  8
Unknown_Line_Type
  70
32
  10
2106620.21
  20
2888120.74
  30
3002
  0
VERTEX
  8
Unknown_Line_Type
  70
32
  10
2106618.29
  20
2888119.08
  30
3002
  0
VERTEX
  8
Unknown_Line_Type
  70
32
  10
2106616.65
  20
2888122.07
  30
3002
  0
VERTEX
  8
Unknown_Line_Type
  70
32
  10
2106610.87
  20
2888120.04
  30
3002
  0
VERTEX
  8
Unknown_Line_Type
  70
32
  10
2106603.41
  20
2888121.45
  30
3002
  0
VERTEX
  8
Unknown_Line_Type
  70
32
  10
2106603.07
  20
2888122.22
  30
3002
  0
VERTEX
  8
Unknown_Line_Type
  70
32
  10
2106600.48
  20
2888122.81
  30
3002
  0
VERTEX
  8
Unknown_Line_Type
  70
32
  10
2106596.52
  20
2888123.87
  30
3002
  0
VERTEX
  8
Unknown_Line_Type
  70
32
  10
2106595.55
  20
2888127.69
  30
3002
  0
VERTEX
  8
Unknown_Line_Type
  70
32
  10
2106590.56
  20
2888134.32
  30
3002
  0
VERTEX
  8
Unknown_Line_Type
  70
32
  10
2106586.84
  20
2888139.21
  30
3002
  0
VERTEX
  8
Unknown_Line_Type
  70
32
  10
2106585.84
  20
2888140.85
  30
3002
  0
VERTEX
  8
Unknown_Line_Type
  70
32
  10
2106583.46
  20
2888140.22
  30
3002
  0
VERTEX
  8
Unknown_Line_Type
  70
32
  10
2106580.29
  20
2888138.18
  30
3002
  0
VERTEX
  8
Unknown_Line_Type
  70
32
  10
2106571.52
  20
2888129.88
  30
3002
  0
VERTEX
  8
Unknown_Line_Type
  70
32
  10
2106566.56
  20
2888135.63
  30
3002
  0
VERTEX
  8
Unknown_Line_Type
  70
32
  10
2106561.50
  20
2888140.24
  30
3002
  0
VERTEX
  8
Unknown_Line_Type
  70
32
  10
2106551.25
  20
2888142.60
  30
3002
  0
VERTEX
  8
Unknown_Line_Type
  70
32
  10
2106550.50
  20
2888149.47
  30
3002
  0
VERTEX
  8
Unknown_Line_Type
  70
32
  10
2106544.15
  20
2888156.39
  30
3002
  0
VERTEX
  8
Unknown_Line_Type
  70
32
  10
2106540.15
  20
2888156.76
  30
3002
  0
VERTEX
  8
Unknown_Line_Type
  70
32
  10
2106532.80
  20
2888156.20
  30
3002
  0
VERTEX
  8
Unknown_Line_Type
  70
32
  10
2106526.03
  20
2888158.46
  30
3002
  0
VERTEX
  8
Unknown_Line_Type
  70
32
  10
2106523.62
  20
2888159.05
  30
3002
  0
VERTEX
  8
Unknown_Line_Type
  70
32
  10
2106520.63
  20
2888163.11
  30
3002
  0
VERTEX
  8
Unknown_Line_Type
  70
32
  10
2106518.63
  20
2888173.07
  30
3002
  0
VERTEX
  8
Unknown_Line_Type
  70
32
  10
2106515.36
  20
2888179.16
  30
3002
  0
VERTEX
  8
Unknown_Line_Type
  70
32
  10
2106510.90
  20
2888179.01
  30
3002
  0
VERTEX
  8
Unknown_Line_Type
  70
32
  10
2106504.50
  20
2888181.58
  30
3002
  0
VERTEX
  8
Unknown_Line_Type
  70
32
  10
2106503.74
  20
2888184.96
  30
3002
  0
VERTEX
  8
Unknown_Line_Type
  70
32
  10
2106499.52
  20
2888190.60
  30
3002
  0
VERTEX
  8
Unknown_Line_Type
  70
32
  10
2106494.33
  20
2888196.90
  30
3002
  0
VERTEX
  8
Unknown_Line_Type
  70
32
  10
2106486.48
  20
2888202.73
  30
3002
  0
VERTEX
  8
Unknown_Line_Type
  70
32
  10
2106483.36
  20
2888202.23
  30
3002
  0
VERTEX
  8
Unknown_Line_Type
  70
32
  10
2106481.51
  20
2888206.70
  30
3002
  0
VERTEX
  8
Unknown_Line_Type
  70
32
  10
2106477.22
  20
2888211.10
  30
3002
  0
VERTEX
  8
Unknown_Line_Type
  70
32
  10
2106471.77
  20
2888215.23
  30
3002
  0
VERTEX
  8
Unknown_Line_Type
  70
32
  10
2106467.31
  20
2888219.80
  30
3002
  0
VERTEX
  8
Unknown_Line_Type
  70
32
  10
2106466.33
  20
2888220.78
  30
3002
  0
SEQEND
  8
Unknown_Line_Type
  0
POLYLINE
  8
Unknown_Line_Type
  70
8
  66
1
 62
0
 39
0
  0
VERTEX
  8
Unknown_Line_Type
  70
32
  10
2106335.53
  20
2887635.00
  30
3004
  0
VERTEX
  8
Unknown_Line_Type
  70
32
  10
2106335.65
  20
2887635.51
  30
3004
  0
VERTEX
  8
Unknown_Line_Type
  70
32
  10
2106331.02
  20
2887644.41
  30
3004
  0
VERTEX
  8
Unknown_Line_Type
  70
32
  10
2106330.76
  20
2887650.05
  30
3004
  0
VERTEX
  8
Unknown_Line_Type
  70
32
  10
2106333.77
  20
2887659.40
  30
3004
  0
VERTEX
  8
Unknown_Line_Type
  70
32
  10
2106335.89
  20
2887664.78
  30
3004
  0
VERTEX
  8
Unknown_Line_Type
  70
32
  10
2106329.78
  20
2887667.94
  30
3004
  0
VERTEX
  8
Unknown_Line_Type
  70
32
  10
2106328.79
  20
2887679.14
  30
3004
  0
VERTEX
  8
Unknown_Line_Type
  70
32
  10
2106329.74
  20
2887684.88
  30
3004
  0
VERTEX
  8
Unknown_Line_Type
  70
32
  10
2106329.72
  20
2887689.46
  30
3004
  0
VERTEX
  8
Unknown_Line_Type
  70
32
  10
2106328.20
  20
2887697.72
  30
3004
  0
VERTEX
  8
Unknown_Line_Type
  70
32
  10
2106326.05
  20
2887700.20
  30
3004
  0
VERTEX
  8
Unknown_Line_Type
  70
32
  10
2106320.14
  20
2887703.94
  30
3004
  0
VERTEX
  8
Unknown_Line_Type
  70
32
  10
2106320.24
  20
2887716.66
  30
3004
  0
VERTEX
  8
Unknown_Line_Type
  70
32
  10
2106321.29
  20
2887719.22
  30
3004
  0
VERTEX
  8
Unknown_Line_Type
  70
32
  10
2106323.30
  20
2887722.37
  30
3004
  0
VERTEX
  8
Unknown_Line_Type
  70
32
  10
2106322.28
  20
2887728.82
  30
3004
  0
VERTEX
  8
Unknown_Line_Type
  70
32
  10
2106319.52
  20
2887740.54
  30
3004
  0
VERTEX
  8
Unknown_Line_Type
  70
32
  10
2106318.86
  20
2887747.66
  30
3004
  0
VERTEX
  8
Unknown_Line_Type
  70
32
  10
2106319.19
  20
2887758.34
  30
3004
  0
VERTEX
  8
Unknown_Line_Type
  70
32
  10
2106323.23
  20
2887765.30
  30
3004
  0
VERTEX
  8
Unknown_Line_Type
  70
32
  10
2106325.18
  20
2887770.01
  30
3004
  0
VERTEX
  8
Unknown_Line_Type
  70
32
  10
2106324.27
  20
2887772.86
  30
3004
  0
VERTEX
  8
Unknown_Line_Type
  70
32
  10
2106321.99
  20
2887780.79
  30
3004
  0
VERTEX
  8
Unknown_Line_Type
  70
32
  10
2106325.22
  20
2887784.81
  30
3004
  0
VERTEX
  8
Unknown_Line_Type
  70
32
  10
2106325.86
  20
2887790.59
  30
3004
  0
VERTEX
  8
Unknown_Line_Type
  70
32
  10
2106330.35
  20
2887801.73
  30
3004
  0
VERTEX
  8
Unknown_Line_Type
  70
32
  10
2106331.53
  20
2887811.53
  30
3004
  0
VERTEX
  8
Unknown_Line_Type
  70
32
  10
2106328.19
  20
2887818.62
  30
3004
  0
VERTEX
  8
Unknown_Line_Type
  70
32
  10
2106329.86
  20
2887822.97
  30
3004
  0
VERTEX
  8
Unknown_Line_Type
  70
32
  10
2106329.25
  20
2887825.18
  30
3004
  0
VERTEX
  8
Unknown_Line_Type
  70
32
  10
2106335.68
  20
2887831.48
  30
3004
  0
VERTEX
  8
Unknown_Line_Type
  70
32
  10
2106332.63
  20
2887833.08
  30
3004
  0
VERTEX
  8
Unknown_Line_Type
  70
32
  10
2106337.32
  20
2887835.87
  30
3004
  0
VERTEX
  8
Unknown_Line_Type
  70
32
  10
2106328.77
  20
2887849.10
  30
3004
  0
VERTEX
  8
Unknown_Line_Type
  70
32
  10
2106327.82
  20
2887850.07
  30
3004
  0
VERTEX
  8
Unknown_Line_Type
  70
32
  10
2106329.15
  20
2887852.39
  30
3004
  0
VERTEX
  8
Unknown_Line_Type
  70
32
  10
2106332.68
  20
2887852.27
  30
3004
  0
VERTEX
  8
Unknown_Line_Type
  70
32
  10
2106341.61
  20
2887848.15
  30
3004
  0
VERTEX
  8
Unknown_Line_Type
  70
32
  10
2106339.50
  20
2887852.65
  30
3004
  0
VERTEX
  8
Unknown_Line_Type
  70
32
  10
2106340.07
  20
2887855.18
  30
3004
  0
VERTEX
  8
Unknown_Line_Type
  70
32
  10
2106341.22
  20
2887864.54
  30
3004
  0
VERTEX
  8
Unknown_Line_Type
  70
32
  10
2106344.64
  20
2887872.98
  30
3004
  0
VERTEX
  8
Unknown_Line_Type
  70
32
  10
2106340.98
  20
2887876.99
  30
3004
  0
VERTEX
  8
Unknown_Line_Type
  70
32
  10
2106343.37
  20
2887882.95
  30
3004
  0
VERTEX
  8
Unknown_Line_Type
  70
32
  10
2106350.37
  20
2887893.30
  30
3004
  0
VERTEX
  8
Unknown_Line_Type
  70
32
  10
2106350.78
  20
2887895.87
  30
3004
  0
VERTEX
  8
Unknown_Line_Type
  70
32
  10
2106353.68
  20
2887904.08
  30
3004
  0
VERTEX
  8
Unknown_Line_Type
  70
32
  10
2106361.78
  20
2887910.89
  30
3004
  0
VERTEX
  8
Unknown_Line_Type
  70
32
  10
2106363.98
  20
2887918.62
  30
3004
  0
VERTEX
  8
Unknown_Line_Type
  70
32
  10
2106362.56
  20
2887923.01
  30
3004
  0
VERTEX
  8
Unknown_Line_Type
  70
32
  10
2106366.25
  20
2887927.88
  30
3004
  0
VERTEX
  8
Unknown_Line_Type
  70
32
  10
2106366.30
  20
2887928.17
  30
3004
  0
VERTEX
  8
Unknown_Line_Type
  70
32
  10
2106369.22
  20
2887936.51
  30
3004
  0
VERTEX
  8
Unknown_Line_Type
  70
32
  10
2106372.08
  20
2887940.40
  30
3004
  0
VERTEX
  8
Unknown_Line_Type
  70
32
  10
2106373.31
  20
2887940.94
  30
3004
  0
VERTEX
  8
Unknown_Line_Type
  70
32
  10
2106382.11
  20
2887943.93
  30
3004
  0
VERTEX
  8
Unknown_Line_Type
  70
32
  10
2106385.98
  20
2887947.24
  30
3004
  0
VERTEX
  8
Unknown_Line_Type
  70
32
  10
2106391.07
  20
2887944.44
  30
3004
  0
VERTEX
  8
Unknown_Line_Type
  70
32
  10
2106394.73
  20
2887934.75
  30
3004
  0
VERTEX
  8
Unknown_Line_Type
  70
32
  10
2106399.00
  20
2887930.49
  30
3004
  0
VERTEX
  8
Unknown_Line_Type
  70
32
  10
2106403.01
  20
2887931.27
  30
3004
  0
VERTEX
  8
Unknown_Line_Type
  70
32
  10
2106409.31
  20
2887930.02
  30
3004
  0
VERTEX
  8
Unknown_Line_Type
  70
32
  10
2106412.81
  20
2887927.01
  30
3004
  0
VERTEX
  8
Unknown_Line_Type
  70
32
  10
2106416.36
  20
2887924.60
  30
3004
  0
VERTEX
  8
Unknown_Line_Type
  70
32
  10
2106420.11
  20
2887927.82
  30
3004
  0
VERTEX
  8
Unknown_Line_Type
  70
32
  10
2106424.78
  20
2887929.03
  30
3004
  0
VERTEX
  8
Unknown_Line_Type
  70
32
  10
2106426.64
  20
2887933.57
  30
3004
  0
VERTEX
  8
Unknown_Line_Type
  70
32
  10
2106429.37
  20
2887936.31
  30
3004
  0
VERTEX
  8
Unknown_Line_Type
  70
32
  10
2106434.47
  20
2887940.93
  30
3004
  0
VERTEX
  8
Unknown_Line_Type
  70
32
  10
2106444.38
  20
2887937.12
  30
3004
  0
VERTEX
  8
Unknown_Line_Type
  70
32
  10
2106451.12
  20
2887935.37
  30
3004
  0
VERTEX
  8
Unknown_Line_Type
  70
32
  10
2106454.73
  20
2887934.40
  30
3004
  0
VERTEX
  8
Unknown_Line_Type
  70
32
  10
2106465.77
  20
2887938.92
  30
3004
  0
VERTEX
  8
Unknown_Line_Type
  70
32
  10
2106466.70
  20
2887932.89
  30
3004
  0
VERTEX
  8
Unknown_Line_Type
  70
32
  10
2106467.86
  20
2887932.04
  30
3004
  0
VERTEX
  8
Unknown_Line_Type
  70
32
  10
2106475.10
  20
2887930.35
  30
3004
  0
VERTEX
  8
Unknown_Line_Type
  70
32
  10
2106481.27
  20
2887931.05
  30
3004
  0
VERTEX
  8
Unknown_Line_Type
  70
32
  10
2106489.30
  20
2887933.27
  30
3004
  0
VERTEX
  8
Unknown_Line_Type
  70
32
  10
2106498.86
  20
2887926.69
  30
3004
  0
VERTEX
  8
Unknown_Line_Type
  70
32
  10
2106503.85
  20
2887925.66
  30
3004
  0
VERTEX
  8
Unknown_Line_Type
  70
32
  10
2106504.81
  20
2887926.01
  30
3004
  0
VERTEX
  8
Unknown_Line_Type
  70
32
  10
2106508.72
  20
2887923.54
  30
3004
  0
VERTEX
  8
Unknown_Line_Type
  70
32
  10
2106517.33
  20
2887925.54
  30
3004
  0
VERTEX
  8
Unknown_Line_Type
  70
32
  10
2106524.31
  20
2887927.67
  30
3004
  0
VERTEX
  8
Unknown_Line_Type
  70
32
  10
2106529.68
  20
2887925.33
  30
3004
  0
VERTEX
  8
Unknown_Line_Type
  70
32
  10
2106535.22
  20
2887922.98
  30
3004
  0
VERTEX
  8
Unknown_Line_Type
  70
32
  10
2106538.20
  20
2887927.02
  30
3004
  0
VERTEX
  8
Unknown_Line_Type
  70
32
  10
2106541.92
  20
2887930.11
  30
3004
  0
VERTEX
  8
Unknown_Line_Type
  70
32
  10
2106549.89
  20
2887926.01
  30
3004
  0
VERTEX
  8
Unknown_Line_Type
  70
32
  10
2106554.78
  20
2887926.04
  30
3004
  0
VERTEX
  8
Unknown_Line_Type
  70
32
  10
2106561.57
  20
2887926.48
  30
3004
  0
VERTEX
  8
Unknown_Line_Type
  70
32
  10
2106566.77
  20
2887926.34
  30
3004
  0
VERTEX
  8
Unknown_Line_Type
  70
32
  10
2106572.87
  20
2887926.67
  30
3004
  0
VERTEX
  8
Unknown_Line_Type
  70
32
  10
2106579.06
  20
2887929.61
  30
3004
  0
VERTEX
  8
Unknown_Line_Type
  70
32
  10
2106584.78
  20
2887931.25
  30
3004
  0
VERTEX
  8
Unknown_Line_Type
  70
32
  10
2106590.35
  20
2887932.27
  30
3004
  0
VERTEX
  8
Unknown_Line_Type
  70
32
  10
2106594.17
  20
2887933.81
  30
3004
  0
VERTEX
  8
Unknown_Line_Type
  70
32
  10
2106603.66
  20
2887934.44
  30
3004
  0
VERTEX
  8
Unknown_Line_Type
  70
32
  10
2106606.07
  20
2887936.32
  30
3004
  0
VERTEX
  8
Unknown_Line_Type
  70
32
  10
2106607.73
  20
2887937.39
  30
3004
  0
VERTEX
  8
Unknown_Line_Type
  70
32
  10
2106612.62
  20
2887941.43
  30
3004
  0
VERTEX
  8
Unknown_Line_Type
  70
32
  10
2106619.00
  20
2887941.00
  30
3004
  0
VERTEX
  8
Unknown_Line_Type
  70
32
  10
2106622.55
  20
2887943.59
  30
3004
  0
VERTEX
  8
Unknown_Line_Type
  70
32
  10
2106626.91
  20
2887947.26
  30
3004
  0
VERTEX
  8
Unknown_Line_Type
  70
32
  10
2106631.63
  20
2887948.49
  30
3004
  0
VERTEX
  8
Unknown_Line_Type
  70
32
  10
2106635.89
  20
2887952.02
  30
3004
  0
VERTEX
  8
Unknown_Line_Type
  70
32
  10
2106635.50
  20
2887952.88
  30
3004
  0
VERTEX
  8
Unknown_Line_Type
  70
32
  10
2106638.49
  20
2887960.17
  30
3004
  0
VERTEX
  8
Unknown_Line_Type
  70
32
  10
2106647.68
  20
2887960.10
  30
3004
  0
VERTEX
  8
Unknown_Line_Type
  70
32
  10
2106655.59
  20
2887959.72
  30
3004
  0
VERTEX
  8
Unknown_Line_Type
  70
32
  10
2106658.32
  20
2887960.70
  30
3004
  0
VERTEX
  8
Unknown_Line_Type
  70
32
  10
2106663.00
  20
2887965.22
  30
3004
  0
VERTEX
  8
Unknown_Line_Type
  70
32
  10
2106665.66
  20
2887967.14
  30
3004
  0
VERTEX
  8
Unknown_Line_Type
  70
32
  10
2106669.11
  20
2887968.35
  30
3004
  0
VERTEX
  8
Unknown_Line_Type
  70
32
  10
2106675.60
  20
2887969.37
  30
3004
  0
VERTEX
  8
Unknown_Line_Type
  70
32
  10
2106678.04
  20
2887971.65
  30
3004
  0
VERTEX
  8
Unknown_Line_Type
  70
32
  10
2106685.26
  20
2887975.61
  30
3004
  0
VERTEX
  8
Unknown_Line_Type
  70
32
  10
2106691.83
  20
2887981.84
  30
3004
  0
VERTEX
  8
Unknown_Line_Type
  70
32
  10
2106698.88
  20
2887988.11
  30
3004
  0
VERTEX
  8
Unknown_Line_Type
  70
32
  10
2106699.15
  20
2887990.26
  30
3004
  0
VERTEX
  8
Unknown_Line_Type
  70
32
  10
2106705.33
  20
2887997.83
  30
3004
  0
VERTEX
  8
Unknown_Line_Type
  70
32
  10
2106709.12
  20
2887996.19
  30
3004
  0
VERTEX
  8
Unknown_Line_Type
  70
32
  10
2106715.85
  20
2888005.50
  30
3004
  0
VERTEX
  8
Unknown_Line_Type
  70
32
  10
2106719.15
  20
2888007.00
  30
3004
  0
VERTEX
  8
Unknown_Line_Type
  70
32
  10
2106722.78
  20
2888010.03
  30
3004
  0
VERTEX
  8
Unknown_Line_Type
  70
32
  10
2106731.95
  20
2888009.51
  30
3004
  0
VERTEX
  8
Unknown_Line_Type
  70
32
  10
2106737.48
  20
2888009.55
  30
3004
  0
VERTEX
  8
Unknown_Line_Type
  70
32
  10
2106738.27
  20
2888012.28
  30
3004
  0
VERTEX
  8
Unknown_Line_Type
  70
32
  10
2106746.78
  20
2888012.86
  30
3004
  0
VERTEX
  8
Unknown_Line_Type
  70
32
  10
2106754.48
  20
2888013.79
  30
3004
  0
VERTEX
  8
Unknown_Line_Type
  70
32
  10
2106764.57
  20
2888009.95
  30
3004
  0
VERTEX
  8
Unknown_Line_Type
  70
32
  10
2106770.09
  20
2888010.59
  30
3004
  0
VERTEX
  8
Unknown_Line_Type
  70
32
  10
2106773.13
  20
2888011.61
  30
3004
  0
VERTEX
  8
Unknown_Line_Type
  70
32
  10
2106779.84
  20
2888014.10
  30
3004
  0
VERTEX
  8
Unknown_Line_Type
  70
32
  10
2106787.74
  20
2888014.39
  30
3004
  0
VERTEX
  8
Unknown_Line_Type
  70
32
  10
2106791.50
  20
2888015.59
  30
3004
  0
VERTEX
  8
Unknown_Line_Type
  70
32
  10
2106797.61
  20
2888019.67
  30
3004
  0
VERTEX
  8
Unknown_Line_Type
  70
32
  10
2106802.74
  20
2888025.39
  30
3004
  0
VERTEX
  8
Unknown_Line_Type
  70
32
  10
2106814.36
  20
2888026.56
  30
3004
  0
VERTEX
  8
Unknown_Line_Type
  70
32
  10
2106825.99
  20
2888022.60
  30
3004
  0
VERTEX
  8
Unknown_Line_Type
  70
32
  10
2106829.03
  20
2888029.16
  30
3004
  0
VERTEX
  8
Unknown_Line_Type
  70
32
  10
2106836.18
  20
2888028.44
  30
3004
  0
VERTEX
  8
Unknown_Line_Type
  70
32
  10
2106842.38
  20
2888028.33
  30
3004
  0
VERTEX
  8
Unknown_Line_Type
  70
32
  10
2106846.78
  20
2888026.96
  30
3004
  0
VERTEX
  8
Unknown_Line_Type
  70
32
  10
2106849.42
  20
2888030.08
  30
3004
  0
VERTEX
  8
Unknown_Line_Type
  70
32
  10
2106844.26
  20
2888034.46
  30
3004
  0
VERTEX
  8
Unknown_Line_Type
  70
32
  10
2106838.26
  20
2888034.95
  30
3004
  0
VERTEX
  8
Unknown_Line_Type
  70
32
  10
2106831.73
  20
2888037.19
  30
3004
  0
VERTEX
  8
Unknown_Line_Type
  70
32
  10
2106825.86
  20
2888043.67
  30
3004
  0
VERTEX
  8
Unknown_Line_Type
  70
32
  10
2106824.84
  20
2888052.61
  30
3004
  0
VERTEX
  8
Unknown_Line_Type
  70
32
  10
2106826.40
  20
2888057.68
  30
3004
  0
VERTEX
  8
Unknown_Line_Type
  70
32
  10
2106833.11
  20
2888067.39
  30
3004
  0
VERTEX
  8
Unknown_Line_Type
  70
32
  10
2106833.83
  20
2888071.91
  30
3004
  0
VERTEX
  8
Unknown_Line_Type
  70
32
  10
2106838.64
  20
2888084.40
  30
3004
  0
VERTEX
  8
Unknown_Line_Type
  70
32
  10
2106839.77
  20
2888090.33
  30
3004
  0
VERTEX
  8
Unknown_Line_Type
  70
32
  10
2106840.22
  20
2888098.38
  30
3004
  0
VERTEX
  8
Unknown_Line_Type
  70
32
  10
2106836.23
  20
2888099.13
  30
3004
  0
VERTEX
  8
Unknown_Line_Type
  70
32
  10
2106830.93
  20
2888100.16
  30
3004
  0
VERTEX
  8
Unknown_Line_Type
  70
32
  10
2106828.00
  20
2888097.30
  30
3004
  0
VERTEX
  8
Unknown_Line_Type
  70
32
  10
2106823.97
  20
2888095.08
  30
3004
  0
VERTEX
  8
Unknown_Line_Type
  70
32
  10
2106818.27
  20
2888097.15
  30
3004
  0
VERTEX
  8
Unknown_Line_Type
  70
32
  10
2106818.05
  20
2888098.25
  30
3004
  0
VERTEX
  8
Unknown_Line_Type
  70
32
  10
2106806.22
  20
2888098.89
  30
3004
  0
VERTEX
  8
Unknown_Line_Type
  70
32
  10
2106799.66
  20
2888099.05
  30
3004
  0
VERTEX
  8
Unknown_Line_Type
  70
32
  10
2106794.75
  20
2888103.93
  30
3004
  0
VERTEX
  8
Unknown_Line_Type
  70
32
  10
2106794.93
  20
2888111.09
  30
3004
  0
VERTEX
  8
Unknown_Line_Type
  70
32
  10
2106791.85
  20
2888118.11
  30
3004
  0
VERTEX
  8
Unknown_Line_Type
  70
32
  10
2106788.77
  20
2888120.67
  30
3004
  0
VERTEX
  8
Unknown_Line_Type
  70
32
  10
2106784.67
  20
2888123.65
  30
3004
  0
VERTEX
  8
Unknown_Line_Type
  70
32
  10
2106782.43
  20
2888126.64
  30
3004
  0
VERTEX
  8
Unknown_Line_Type
  70
32
  10
2106781.04
  20
2888132.50
  30
3004
  0
VERTEX
  8
Unknown_Line_Type
  70
32
  10
2106772.43
  20
2888133.72
  30
3004
  0
VERTEX
  8
Unknown_Line_Type
  70
32
  10
2106771.61
  20
2888121.19
  30
3004
  0
VERTEX
  8
Unknown_Line_Type
  70
32
  10
2106766.48
  20
2888118.89
  30
3004
  0
VERTEX
  8
Unknown_Line_Type
  70
32
  10
2106764.69
  20
2888121.18
  30
3004
  0
VERTEX
  8
Unknown_Line_Type
  70
32
  10
2106764.39
  20
2888134.62
  30
3004
  0
VERTEX
  8
Unknown_Line_Type
  70
32
  10
2106760.76
  20
2888139.54
  30
3004
  0
VERTEX
  8
Unknown_Line_Type
  70
32
  10
2106755.51
  20
2888138.47
  30
3004
  0
VERTEX
  8
Unknown_Line_Type
  70
32
  10
2106750.54
  20
2888145.82
  30
3004
  0
VERTEX
  8
Unknown_Line_Type
  70
32
  10
2106744.58
  20
2888151.19
  30
3004
  0
VERTEX
  8
Unknown_Line_Type
  70
32
  10
2106736.32
  20
2888156.71
  30
3004
  0
VERTEX
  8
Unknown_Line_Type
  70
32
  10
2106733.63
  20
2888162.80
  30
3004
  0
VERTEX
  8
Unknown_Line_Type
  70
32
  10
2106729.29
  20
2888166.24
  30
3004
  0
VERTEX
  8
Unknown_Line_Type
  70
32
  10
2106723.00
  20
2888166.00
  30
3004
  0
VERTEX
  8
Unknown_Line_Type
  70
32
  10
2106720.31
  20
2888167.05
  30
3004
  0
VERTEX
  8
Unknown_Line_Type
  70
32
  10
2106719.10
  20
2888171.46
  30
3004
  0
VERTEX
  8
Unknown_Line_Type
  70
32
  10
2106712.02
  20
2888170.34
  30
3004
  0
VERTEX
  8
Unknown_Line_Type
  70
32
  10
2106700.41
  20
2888170.24
  30
3004
  0
VERTEX
  8
Unknown_Line_Type
  70
32
  10
2106688.47
  20
2888165.40
  30
3004
  0
VERTEX
  8
Unknown_Line_Type
  70
32
  10
2106684.02
  20
2888161.69
  30
3004
  0
VERTEX
  8
Unknown_Line_Type
  70
32
  10
2106677.99
  20
2888159.08
  30
3004
  0
VERTEX
  8
Unknown_Line_Type
  70
32
  10
2106672.39
  20
2888154.50
  30
3004
  0
VERTEX
  8
Unknown_Line_Type
  70
32
  10
2106670.58
  20
2888151.23
  30
3004
  0
VERTEX
  8
Unknown_Line_Type
  70
32
  10
2106661.71
  20
2888150.82
  30
3004
  0
VERTEX
  8
Unknown_Line_Type
  70
32
  10
2106651.55
  20
2888146.01
  30
3004
  0
VERTEX
  8
Unknown_Line_Type
  70
32
  10
2106650.31
  20
2888145.42
  30
3004
  0
VERTEX
  8
Unknown_Line_Type
  70
32
  10
2106646.80
  20
2888144.26
  30
3004
  0
VERTEX
  8
Unknown_Line_Type
  70
32
  10
2106644.67
  20
2888145.07
  30
3004
  0
VERTEX
  8
Unknown_Line_Type
  70
32
  10
2106639.12
  20
2888149.49
  30
3004
  0
VERTEX
  8
Unknown_Line_Type
  70
32
  10
2106641.76
  20
2888160.97
  30
3004
  0
VERTEX
  8
Unknown_Line_Type
  70
32
  10
2106629.14
  20
2888158.34
  30
3004
  0
VERTEX
  8
Unknown_Line_Type
  70
32
  10
2106621.70
  20
2888157.26
  30
3004
  0
VERTEX
  8
Unknown_Line_Type
  70
32
  10
2106612.94
  20
2888160.24
  30
3004
  0
VERTEX
  8
Unknown_Line_Type
  70
32
  10
2106607.84
  20
2888159.70
  30
3004
  0
VERTEX
  8
Unknown_Line_Type
  70
32
  10
2106598.65
  20
2888163.26
  30
3004
  0
VERTEX
  8
Unknown_Line_Type
  70
32
  10
2106596.39
  20
2888163.46
  30
3004
  0
VERTEX
  8
Unknown_Line_Type
  70
32
  10
2106583.28
  20
2888159.01
  30
3004
  0
VERTEX
  8
Unknown_Line_Type
  70
32
  10
2106579.13
  20
2888157.72
  30
3004
  0
VERTEX
  8
Unknown_Line_Type
  70
32
  10
2106577.31
  20
2888158.95
  30
3004
  0
VERTEX
  8
Unknown_Line_Type
  70
32
  10
2106577.33
  20
2888159.51
  30
3004
  0
VERTEX
  8
Unknown_Line_Type
  70
32
  10
2106578.65
  20
2888163.63
  30
3004
  0
VERTEX
  8
Unknown_Line_Type
  70
32
  10
2106586.17
  20
2888168.44
  30
3004
  0
VERTEX
  8
Unknown_Line_Type
  70
32
  10
2106585.97
  20
2888172.07
  30
3004
  0
VERTEX
  8
Unknown_Line_Type
  70
32
  10
2106583.24
  20
2888177.96
  30
3004
  0
VERTEX
  8
Unknown_Line_Type
  70
32
  10
2106583.43
  20
2888180.50
  30
3004
  0
VERTEX
  8
Unknown_Line_Type
  70
32
  10
2106578.59
  20
2888179.29
  30
3004
  0
VERTEX
  8
Unknown_Line_Type
  70
32
  10
2106571.97
  20
2888186.96
  30
3004
  0
VERTEX
  8
Unknown_Line_Type
  70
32
  10
2106569.59
  20
2888186.29
  30
3004
  0
VERTEX
  8
Unknown_Line_Type
  70
32
  10
2106562.10
  20
2888188.25
  30
3004
  0
VERTEX
  8
Unknown_Line_Type
  70
32
  10
2106557.99
  20
2888189.31
  30
3004
  0
VERTEX
  8
Unknown_Line_Type
  70
32
  10
2106553.45
  20
2888192.39
  30
3004
  0
VERTEX
  8
Unknown_Line_Type
  70
32
  10
2106548.12
  20
2888196.26
  30
3004
  0
VERTEX
  8
Unknown_Line_Type
  70
32
  10
2106542.97
  20
2888196.72
  30
3004
  0
VERTEX
  8
Unknown_Line_Type
  70
32
  10
2106538.95
  20
2888193.58
  30
3004
  0
VERTEX
  8
Unknown_Line_Type
  70
32
  10
2106537.52
  20
2888192.35
  30
3004
  0
VERTEX
  8
Unknown_Line_Type
  70
32
  10
2106532.69
  20
2888192.59
  30
3004
  0
VERTEX
  8
Unknown_Line_Type
  70
32
  10
2106527.45
  20
2888190.12
  30
3004
  0
VERTEX
  8
Unknown_Line_Type
  70
32
  10
2106523.90
  20
2888192.05
  30
3004
  0
VERTEX
  8
Unknown_Line_Type
  70
32
  10
2106520.15
  20
2888195.04
  30
3004
  0
VERTEX
  8
Unknown_Line_Type
  70
32
  10
2106516.65
  20
2888197.71
  30
3004
  0
VERTEX
  8
Unknown_Line_Type
  70
32
  10
2106508.52
  20
2888197.25
  30
3004
  0
VERTEX
  8
Unknown_Line_Type
  70
32
  10
2106505.35
  20
2888198.78
  30
3004
  0
VERTEX
  8
Unknown_Line_Type
  70
32
  10
2106502.78
  20
2888205.91
  30
3004
  0
VERTEX
  8
Unknown_Line_Type
  70
32
  10
2106495.90
  20
2888211.19
  30
3004
  0
VERTEX
  8
Unknown_Line_Type
  70
32
  10
2106490.66
  20
2888215.27
  30
3004
  0
VERTEX
  8
Unknown_Line_Type
  70
32
  10
2106484.33
  20
2888214.19
  30
3004
  0
VERTEX
  8
Unknown_Line_Type
  70
32
  10
2106480.56
  20
2888217.04
  30
3004
  0
VERTEX
  8
Unknown_Line_Type
  70
32
  10
2106476.71
  20
2888220.99
  30
3004
  0
VERTEX
  8
Unknown_Line_Type
  70
32
  10
2106475.52
  20
2888226.66
  30
3004
  0
SEQEND
  8
Unknown_Line_Type
  0
POLYLINE
  8
Unknown_Line_Type
  70
8
  66
1
 62
0
 39
0
  0
VERTEX
  8
Unknown_Line_Type
  70
32
  10
2106389.97
  20
2887635.00
  30
3006
  0
VERTEX
  8
Unknown_Line_Type
  70
32
  10
2106390.15
  20
2887636.57
  30
3006
  0
VERTEX
  8
Unknown_Line_Type
  70
32
  10
2106394.14
  20
2887636.58
  30
3006
  0
VERTEX
  8
Unknown_Line_Type
  70
32
  10
2106398.50
  20
2887641.71
  30
3006
  0
VERTEX
  8
Unknown_Line_Type
  70
32
  10
2106398.98
  20
2887654.60
  30
3006
  0
VERTEX
  8
Unknown_Line_Type
  70
32
  10
2106394.97
  20
2887663.00
  30
3006
  0
VERTEX
  8
Unknown_Line_Type
  70
32
  10
2106388.30
  20
2887672.42
  30
3006
  0
VERTEX
  8
Unknown_Line_Type
  70
32
  10
2106381.96
  20
2887678.23
  30
3006
  0
VERTEX
  8
Unknown_Line_Type
  70
32
  10
2106377.34
  20
2887680.07
  30
3006
  0
VERTEX
  8
Unknown_Line_Type
  70
32
  10
2106376.10
  20
2887686.43
  30
3006
  0
VERTEX
  8
Unknown_Line_Type
  70
32
  10
2106373.38
  20
2887692.98
  30
3006
  0
VERTEX
  8
Unknown_Line_Type
  70
32
  10
2106377.52
  20
2887699.96
  30
3006
  0
VERTEX
  8
Unknown_Line_Type
  70
32
  10
2106374.61
  20
2887706.51
  30
3006
  0
VERTEX
  8
Unknown_Line_Type
  70
32
  10
2106372.19
  20
2887708.09
  30
3006
  0
VERTEX
  8
Unknown_Line_Type
  70
32
  10
2106375.13
  20
2887717.75
  30
3006
  0
VERTEX
  8
Unknown_Line_Type
  70
32
  10
2106377.14
  20
2887719.90
  30
3006
  0
VERTEX
  8
Unknown_Line_Type
  70
32
  10
2106365.94
  20
2887724.69
  30
3006
  0
VERTEX
  8
Unknown_Line_Type
  70
32
  10
2106362.78
  20
2887724.48
  30
3006
  0
VERTEX
  8
Unknown_Line_Type
  70
32
  10
2106357.87
  20
2887727.72
  30
3006
  0
VERTEX
  8
Unknown_Line_Type
  70
32
  10
2106358.51
  20
2887730.25
  30
3006
  0
VERTEX
  8
Unknown_Line_Type
  70
32
  10
2106359.63
  20
2887737.12
  30
3006
  0
VERTEX
  8
Unknown_Line_Type
  70
32
  10
2106361.41
  20
2887742.63
  30
3006
  0
VERTEX
  8
Unknown_Line_Type
  70
32
  10
2106362.99
  20
2887749.84
  30
3006
  0
VERTEX
  8
Unknown_Line_Type
  70
32
  10
2106355.10
  20
2887761.34
  30
3006
  0
VERTEX
  8
Unknown_Line_Type
  70
32
  10
2106367.37
  20
2887770.81
  30
3006
  0
VERTEX
  8
Unknown_Line_Type
  70
32
  10
2106366.84
  20
2887777.27
  30
3006
  0
VERTEX
  8
Unknown_Line_Type
  70
32
  10
2106364.34
  20
2887780.46
  30
3006
  0
VERTEX
  8
Unknown_Line_Type
  70
32
  10
2106362.51
  20
2887785.36
  30
3006
  0
VERTEX
  8
Unknown_Line_Type
  70
32
  10
2106365.94
  20
2887800.71
  30
3006
  0
VERTEX
  8
Unknown_Line_Type
  70
32
  10
2106367.79
  20
2887805.03
  30
3006
  0
VERTEX
  8
Unknown_Line_Type
  70
32
  10
2106364.84
  20
2887806.20
  30
3006
  0
VERTEX
  8
Unknown_Line_Type
  70
32
  10
2106368.26
  20
2887810.74
  30
3006
  0
VERTEX
  8
Unknown_Line_Type
  70
32
  10
2106368.05
  20
2887816.54
  30
3006
  0
VERTEX
  8
Unknown_Line_Type
  70
32
  10
2106369.31
  20
2887826.39
  30
3006
  0
VERTEX
  8
Unknown_Line_Type
  70
32
  10
2106376.95
  20
2887829.25
  30
3006
  0
VERTEX
  8
Unknown_Line_Type
  70
32
  10
2106380.51
  20
2887835.69
  30
3006
  0
VERTEX
  8
Unknown_Line_Type
  70
32
  10
2106382.47
  20
2887845.11
  30
3006
  0
VERTEX
  8
Unknown_Line_Type
  70
32
  10
2106382.67
  20
2887846.25
  30
3006
  0
VERTEX
  8
Unknown_Line_Type
  70
32
  10
2106385.34
  20
2887848.92
  30
3006
  0
VERTEX
  8
Unknown_Line_Type
  70
32
  10
2106378.66
  20
2887852.74
  30
3006
  0
VERTEX
  8
Unknown_Line_Type
  70
32
  10
2106377.93
  20
2887853.02
  30
3006
  0
VERTEX
  8
Unknown_Line_Type
  70
32
  10
2106370.20
  20
2887856.46
  30
3006
  0
VERTEX
  8
Unknown_Line_Type
  70
32
  10
2106371.81
  20
2887860.38
  30
3006
  0
VERTEX
  8
Unknown_Line_Type
  70
32
  10
2106378.52
  20
2887863.98
  30
3006
  0
VERTEX
  8
Unknown_Line_Type
  70
32
  10
2106385.17
  20
2887869.80
  30
3006
  0
VERTEX
  8
Unknown_Line_Type
  70
32
  10
2106387.18
  20
2887873.00
  30
3006
  0
VERTEX
  8
Unknown_Line_Type
  70
32
  10
2106388.15
  20
2887879.00
  30
3006
  0
VERTEX
  8
Unknown_Line_Type
  70
32
  10
2106387.96
  20
2887884.56
  30
3006
  0
VERTEX
  8
Unknown_Line_Type
  70
32
  10
2106401.03
  20
2887890.60
  30
3006
  0
VERTEX
  8
Unknown_Line_Type
  70
32
  10
2106402.46
  20
2887889.87
  30
3006
  0
VERTEX
  8
Unknown_Line_Type
  70
32
  10
2106408.32
  20
2887891.10
  30
3006
  0
VERTEX
  8
Unknown_Line_Type
  70
32
  10
2106411.48
  20
2887889.22
  30
3006
  0
VERTEX
  8
Unknown_Line_Type
  70
32
  10
2106413.00
  20
2887894.71
  30
3006
  0
VERTEX
  8
Unknown_Line_Type
  70
32
  10
2106421.00
  20
2887903.12
  30
3006
  0
VERTEX
  8
Unknown_Line_Type
  70
32
  10
2106427.04
  20
2887903.36
  30
3006
  0
VERTEX
  8
Unknown_Line_Type
  70
32
  10
2106433.51
  20
2887901.40
  30
3006
  0
VERTEX
  8
Unknown_Line_Type
  70
32
  10
2106434.24
  20
2887901.05
  30
3006
  0
VERTEX
  8
Unknown_Line_Type
  70
32
  10
2106440.07
  20
2887895.50
  30
3006
  0
VERTEX
  8
Unknown_Line_Type
  70
32
  10
2106445.19
  20
2887900.07
  30
3006
  0
VERTEX
  8
Unknown_Line_Type
  70
32
  10
2106448.98
  20
2887900.69
  30
3006
  0
VERTEX
  8
Unknown_Line_Type
  70
32
  10
2106461.48
  20
2887900.93
  30
3006
  0
VERTEX
  8
Unknown_Line_Type
  70
32
  10
2106464.80
  20
2887901.99
  30
3006
  0
VERTEX
  8
Unknown_Line_Type
  70
32
  10
2106465.58
  20
2887902.54
  30
3006
  0
VERTEX
  8
Unknown_Line_Type
  70
32
  10
2106467.07
  20
2887902.81
  30
3006
  0
VERTEX
  8
Unknown_Line_Type
  70
32
  10
2106476.08
  20
2887903.75
  30
3006
  0
VERTEX
  8
Unknown_Line_Type
  70
32
  10
2106486.83
  20
2887902.42
  30
3006
  0
VERTEX
  8
Unknown_Line_Type
  70
32
  10
2106492.70
  20
2887902.16
  30
3006
  0
VERTEX
  8
Unknown_Line_Type
  70
32
  10
2106499.25
  20
2887899.90
  30
3006
  0
VERTEX
  8
Unknown_Line_Type
  70
32
  10
2106509.26
  20
2887897.88
  30
3006
  0
VERTEX
  8
Unknown_Line_Type
  70
32
  10
2106509.75
  20
2887898.38
  30
3006
  0
VERTEX
  8
Unknown_Line_Type
  70
32
  10
2106513.44
  20
2887898.01
  30
3006
  0
VERTEX
  8
Unknown_Line_Type
  70
32
  10
2106519.85
  20
2887898.23
  30
3006
  0
VERTEX
  8
Unknown_Line_Type
  70
32
  10
2106527.51
  20
2887899.99
  30
3006
  0
VERTEX
  8
Unknown_Line_Type
  70
32
  10
2106532.76
  20
2887899.03
  30
3006
  0
VERTEX
  8
Unknown_Line_Type
  70
32
  10
2106540.73
  20
2887896.04
  30
3006
  0
VERTEX
  8
Unknown_Line_Type
  70
32
  10
2106544.91
  20
2887892.02
  30
3006
  0
VERTEX
  8
Unknown_Line_Type
  70
32
  10
2106549.28
  20
2887893.76
  30
3006
  0
VERTEX
  8
Unknown_Line_Type
  70
32
  10
2106551.86
  20
2887894.24
  30
3006
  0
VERTEX
  8
Unknown_Line_Type
  70
32
  10
2106557.77
  20
2887897.84
  30
3006
  0
VERTEX
  8
Unknown_Line_Type
  70
32
  10
2106562.67
  20
2887900.46
  30
3006
  0
VERTEX
  8
Unknown_Line_Type
  70
32
  10
2106570.23
  20
2887898.58
  30
3006
  0
VERTEX
  8
Unknown_Line_Type
  70
32
  10
2106574.17
  20
2887899.14
  30
3006
  0
VERTEX
  8
Unknown_Line_Type
  70
32
  10
2106586.98
  20
2887899.27
  30
3006
  0
VERTEX
  8
Unknown_Line_Type
  70
32
  10
2106593.39
  20
2887902.42
  30
3006
  0
VERTEX
  8
Unknown_Line_Type
  70
32
  10
2106593.88
  20
2887903.45
  30
3006
  0
VERTEX
  8
Unknown_Line_Type
  70
32
  10
2106599.00
  20
2887908.76
  30
3006
  0
VERTEX
  8
Unknown_Line_Type
  70
32
  10
2106603.87
  20
2887910.73
  30
3006
  0
VERTEX
  8
Unknown_Line_Type
  70
32
  10
2106607.45
  20
2887914.58
  30
3006
  0
VERTEX
  8
Unknown_Line_Type
  70
32
  10
2106611.36
  20
2887918.88
  30
3006
  0
VERTEX
  8
Unknown_Line_Type
  70
32
  10
2106617.39
  20
2887915.76
  30
3006
  0
VERTEX
  8
Unknown_Line_Type
  70
32
  10
2106617.18
  20
2887923.66
  30
3006
  0
VERTEX
  8
Unknown_Line_Type
  70
32
  10
2106625.49
  20
2887923.70
  30
3006
  0
VERTEX
  8
Unknown_Line_Type
  70
32
  10
2106630.07
  20
2887927.47
  30
3006
  0
VERTEX
  8
Unknown_Line_Type
  70
32
  10
2106634.61
  20
2887931.25
  30
3006
  0
VERTEX
  8
Unknown_Line_Type
  70
32
  10
2106638.67
  20
2887927.46
  30
3006
  0
VERTEX
  8
Unknown_Line_Type
  70
32
  10
2106639.01
  20
2887927.00
  30
3006
  0
VERTEX
  8
Unknown_Line_Type
  70
32
  10
2106645.79
  20
2887923.38
  30
3006
  0
VERTEX
  8
Unknown_Line_Type
  70
32
  10
2106648.77
  20
2887928.02
  30
3006
  0
VERTEX
  8
Unknown_Line_Type
  70
32
  10
2106656.23
  20
2887933.68
  30
3006
  0
VERTEX
  8
Unknown_Line_Type
  70
32
  10
2106660.59
  20
2887935.76
  30
3006
  0
VERTEX
  8
Unknown_Line_Type
  70
32
  10
2106663.98
  20
2887937.03
  30
3006
  0
VERTEX
  8
Unknown_Line_Type
  70
32
  10
2106670.58
  20
2887943.82
  30
3006
  0
VERTEX
  8
Unknown_Line_Type
  70
32
  10
2106676.77
  20
2887952.69
  30
3006
  0
VERTEX
  8
Unknown_Line_Type
  70
32
  10
2106678.18
  20
2887956.45
  30
3006
  0
VERTEX
  8
Unknown_Line_Type
  70
32
  10
2106682.83
  20
2887957.38
  30
3006
  0
VERTEX
  8
Unknown_Line_Type
  70
32
  10
2106684.87
  20
2887956.39
  30
3006
  0
VERTEX
  8
Unknown_Line_Type
  70
32
  10
2106688.35
  20
2887955.50
  30
3006
  0
VERTEX
  8
Unknown_Line_Type
  70
32
  10
2106700.17
  20
2887960.72
  30
3006
  0
VERTEX
  8
Unknown_Line_Type
  70
32
  10
2106700.63
  20
2887963.31
  30
3006
  0
VERTEX
  8
Unknown_Line_Type
  70
32
  10
2106707.55
  20
2887965.09
  30
3006
  0
VERTEX
  8
Unknown_Line_Type
  70
32
  10
2106712.93
  20
2887968.42
  30
3006
  0
VERTEX
  8
Unknown_Line_Type
  70
32
  10
2106716.11
  20
2887972.45
  30
3006
  0
VERTEX
  8
Unknown_Line_Type
  70
32
  10
2106718.14
  20
2887978.90
  30
3006
  0
VERTEX
  8
Unknown_Line_Type
  70
32
  10
2106718.85
  20
2887984.13
  30
3006
  0
VERTEX
  8
Unknown_Line_Type
  70
32
  10
2106723.11
  20
2887986.10
  30
3006
  0
VERTEX
  8
Unknown_Line_Type
  70
32
  10
2106733.71
  20
2887987.69
  30
3006
  0
VERTEX
  8
Unknown_Line_Type
  70
32
  10
2106737.54
  20
2887989.82
  30
3006
  0
VERTEX
  8
Unknown_Line_Type
  70
32
  10
2106740.85
  20
2887988.29
  30
3006
  0
VERTEX
  8
Unknown_Line_Type
  70
32
  10
2106750.11
  20
2887987.60
  30
3006
  0
VERTEX
  8
Unknown_Line_Type
  70
32
  10
2106757.13
  20
2887989.02
  30
3006
  0
VERTEX
  8
Unknown_Line_Type
  70
32
  10
2106762.90
  20
2887988.95
  30
3006
  0
VERTEX
  8
Unknown_Line_Type
  70
32
  10
2106771.28
  20
2887988.96
  30
3006
  0
VERTEX
  8
Unknown_Line_Type
  70
32
  10
2106777.33
  20
2887987.55
  30
3006
  0
VERTEX
  8
Unknown_Line_Type
  70
32
  10
2106778.33
  20
2887990.64
  30
3006
  0
VERTEX
  8
Unknown_Line_Type
  70
32
  10
2106782.42
  20
2887989.95
  30
3006
  0
VERTEX
  8
Unknown_Line_Type
  70
32
  10
2106790.27
  20
2887991.11
  30
3006
  0
VERTEX
  8
Unknown_Line_Type
  70
32
  10
2106798.81
  20
2887991.55
  30
3006
  0
VERTEX
  8
Unknown_Line_Type
  70
32
  10
2106802.20
  20
2887990.63
  30
3006
  0
VERTEX
  8
Unknown_Line_Type
  70
32
  10
2106807.39
  20
2887988.35
  30
3006
  0
VERTEX
  8
Unknown_Line_Type
  70
32
  10
2106814.26
  20
2887990.06
  30
3006
  0
VERTEX
  8
Unknown_Line_Type
  70
32
  10
2106818.02
  20
2887991.53
  30
3006
  0
VERTEX
  8
Unknown_Line_Type
  70
32
  10
2106818.54
  20
2887993.02
  30
3006
  0
VERTEX
  8
Unknown_Line_Type
  70
32
  10
2106819.39
  20
2887995.73
  30
3006
  0
VERTEX
  8
Unknown_Line_Type
  70
32
  10
2106823.22
  20
2887998.12
  30
3006
  0
VERTEX
  8
Unknown_Line_Type
  70
32
  10
2106824.94
  20
2887996.76
  30
3006
  0
VERTEX
  8
Unknown_Line_Type
  70
32
  10
2106829.02
  20
2887993.95
  30
3006
  0
VERTEX
  8
Unknown_Line_Type
  70
32
  10
2106836.27
  20
2887994.45
  30
3006
  0
VERTEX
  8
Unknown_Line_Type
  70
32
  10
2106844.81
  20
2887994.48
  30
3006
  0
VERTEX
  8
Unknown_Line_Type
  70
32
  10
2106846.90
  20
2887996.13
  30
3006
  0
VERTEX
  8
Unknown_Line_Type
  70
32
  10
2106853.01
  20
2887996.80
  30
3006
  0
VERTEX
  8
Unknown_Line_Type
  70
32
  10
2106856.06
  20
2887995.40
  30
3006
  0
VERTEX
  8
Unknown_Line_Type
  70
32
  10
2106863.05
  20
2887994.89
  30
3006
  0
VERTEX
  8
Unknown_Line_Type
  70
32
  10
2106865.70
  20
2887996.59
  30
3006
  0
VERTEX
  8
Unknown_Line_Type
  70
32
  10
2106877.19
  20
2887998.26
  30
3006
  0
VERTEX
  8
Unknown_Line_Type
  70
32
  10
2106881.55
  20
2887995.10
  30
3006
  0
VERTEX
  8
Unknown_Line_Type
  70
32
  10
2106886.81
  20
2887997.21
  30
3006
  0
VERTEX
  8
Unknown_Line_Type
  70
32
  10
2106896.76
  20
2887997.12
  30
3006
  0
VERTEX
  8
Unknown_Line_Type
  70
32
  10
2106898.72
  20
2887996.69
  30
3006
  0
VERTEX
  8
Unknown_Line_Type
  70
32
  10
2106904.75
  20
2887996.13
  30
3006
  0
VERTEX
  8
Unknown_Line_Type
  70
32
  10
2106907.06
  20
2887995.60
  30
3006
  0
VERTEX
  8
Unknown_Line_Type
  70
32
  10
2106913.01
  20
2887999.28
  30
3006
  0
VERTEX
  8
Unknown_Line_Type
  70
32
  10
2106916.26
  20
2888000.22
  30
3006
  0
VERTEX
  8
Unknown_Line_Type
  70
32
  10
2106921.42
  20
2888004.57
  30
3006
  0
VERTEX
  8
Unknown_Line_Type
  70
32
  10
2106929.93
  20
2888003.05
  30
3006
  0
VERTEX
  8
Unknown_Line_Type
  70
32
  10
2106940.35
  20
2888000.97
  30
3006
  0
VERTEX
  8
Unknown_Line_Type
  70
32
  10
2106944.44
  20
2888002.73
  30
3006
  0
VERTEX
  8
Unknown_Line_Type
  70
32
  10
2106945.71
  20
2888005.42
  30
3006
  0
VERTEX
  8
Unknown_Line_Type
  70
32
  10
2106956.51
  20
2888010.04
  30
3006
  0
VERTEX
  8
Unknown_Line_Type
  70
32
  10
2106967.35
  20
2888012.10
  30
3006
  0
VERTEX
  8
Unknown_Line_Type
  70
32
  10
2106972.36
  20
2888019.18
  30
3006
  0
VERTEX
  8
Unknown_Line_Type
  70
32
  10
2106979.02
  20
2888020.89
  30
3006
  0
VERTEX
  8
Unknown_Line_Type
  70
32
  10
2106987.48
  20
2888020.74
  30
3006
  0
VERTEX
  8
Unknown_Line_Type
  70
32
  10
2106990.97
  20
2888023.08
  30
3006
  0
VERTEX
  8
Unknown_Line_Type
  70
32
  10
2106993.71
  20
2888026.68
  30
3006
  0
VERTEX
  8
Unknown_Line_Type
  70
32
  10
2106994.74
  20
2888036.50
  30
3006
  0
VERTEX
  8
Unknown_Line_Type
  70
32
  10
2106985.96
  20
2888042.09
  30
3006
  0
VERTEX
  8
Unknown_Line_Type
  70
32
  10
2106982.80
  20
2888048.06
  30
3006
  0
VERTEX
  8
Unknown_Line_Type
  70
32
  10
2106978.56
  20
2888062.16
  30
3006
  0
VERTEX
  8
Unknown_Line_Type
  70
32
  10
2106979.05
  20
2888072.32
  30
3006
  0
VERTEX
  8
Unknown_Line_Type
  70
32
  10
2106985.08
  20
2888075.24
  30
3006
  0
VERTEX
  8
Unknown_Line_Type
  70
32
  10
2106981.71
  20
2888083.72
  30
3006
  0
VERTEX
  8
Unknown_Line_Type
  70
32
  10
2106971.38
  20
2888086.19
  30
3006
  0
VERTEX
  8
Unknown_Line_Type
  70
32
  10
2106961.53
  20
2888086.05
  30
3006
  0
VERTEX
  8
Unknown_Line_Type
  70
32
  10
2106955.60
  20
2888086.19
  30
3006
  0
VERTEX
  8
Unknown_Line_Type
  70
32
  10
2106956.13
  20
2888094.20
  30
3006
  0
VERTEX
  8
Unknown_Line_Type
  70
32
  10
2106952.18
  20
2888105.82
  30
3006
  0
VERTEX
  8
Unknown_Line_Type
  70
32
  10
2106946.34
  20
2888108.92
  30
3006
  0
VERTEX
  8
Unknown_Line_Type
  70
32
  10
2106936.35
  20
2888105.51
  30
3006
  0
VERTEX
  8
Unknown_Line_Type
  70
32
  10
2106928.35
  20
2888104.50
  30
3006
  0
VERTEX
  8
Unknown_Line_Type
  70
32
  10
2106927.18
  20
2888104.47
  30
3006
  0
VERTEX
  8
Unknown_Line_Type
  70
32
  10
2106922.60
  20
2888109.76
  30
3006
  0
VERTEX
  8
Unknown_Line_Type
  70
32
  10
2106917.04
  20
2888112.39
  30
3006
  0
VERTEX
  8
Unknown_Line_Type
  70
32
  10
2106907.60
  20
2888112.55
  30
3006
  0
VERTEX
  8
Unknown_Line_Type
  70
32
  10
2106899.03
  20
2888111.21
  30
3006
  0
VERTEX
  8
Unknown_Line_Type
  70
32
  10
2106897.63
  20
2888112.31
  30
3006
  0
VERTEX
  8
Unknown_Line_Type
  70
32
  10
2106889.99
  20
2888111.80
  30
3006
  0
VERTEX
  8
Unknown_Line_Type
  70
32
  10
2106885.02
  20
2888116.83
  30
3006
  0
VERTEX
  8
Unknown_Line_Type
  70
32
  10
2106878.63
  20
2888119.45
  30
3006
  0
VERTEX
  8
Unknown_Line_Type
  70
32
  10
2106874.03
  20
2888120.60
  30
3006
  0
VERTEX
  8
Unknown_Line_Type
  70
32
  10
2106868.29
  20
2888122.33
  30
3006
  0
VERTEX
  8
Unknown_Line_Type
  70
32
  10
2106860.16
  20
2888127.42
  30
3006
  0
VERTEX
  8
Unknown_Line_Type
  70
32
  10
2106856.60
  20
2888131.62
  30
3006
  0
VERTEX
  8
Unknown_Line_Type
  70
32
  10
2106845.64
  20
2888133.87
  30
3006
  0
VERTEX
  8
Unknown_Line_Type
  70
32
  10
2106843.95
  20
2888135.00
  30
3006
  0
VERTEX
  8
Unknown_Line_Type
  70
32
  10
2106842.76
  20
2888134.36
  30
3006
  0
VERTEX
  8
Unknown_Line_Type
  70
32
  10
2106838.20
  20
2888135.96
  30
3006
  0
VERTEX
  8
Unknown_Line_Type
  70
32
  10
2106835.85
  20
2888138.17
  30
3006
  0
VERTEX
  8
Unknown_Line_Type
  70
32
  10
2106832.83
  20
2888144.09
  30
3006
  0
VERTEX
  8
Unknown_Line_Type
  70
32
  10
2106830.24
  20
2888145.95
  30
3006
  0
VERTEX
  8
Unknown_Line_Type
  70
32
  10
2106827.20
  20
2888147.94
  30
3006
  0
VERTEX
  8
Unknown_Line_Type
  70
32
  10
2106821.44
  20
2888149.41
  30
3006
  0
VERTEX
  8
Unknown_Line_Type
  70
32
  10
2106812.06
  20
2888153.19
  30
3006
  0
VERTEX
  8
Unknown_Line_Type
  70
32
  10
2106808.28
  20
2888150.66
  30
3006
  0
VERTEX
  8
Unknown_Line_Type
  70
32
  10
2106801.74
  20
2888150.99
  30
3006
  0
VERTEX
  8
Unknown_Line_Type
  70
32
  10
2106798.62
  20
2888162.62
  30
3006
  0
VERTEX
  8
Unknown_Line_Type
  70
32
  10
2106799.46
  20
2888166.96
  30
3006
  0
VERTEX
  8
Unknown_Line_Type
  70
32
  10
2106797.54
  20
2888170.82
  30
3006
  0
VERTEX
  8
Unknown_Line_Type
  70
32
  10
2106796.63
  20
2888170.42
  30
3006
  0
VERTEX
  8
Unknown_Line_Type
  70
32
  10
2106792.84
  20
2888168.76
  30
3006
  0
VERTEX
  8
Unknown_Line_Type
  70
32
  10
2106784.32
  20
2888169.28
  30
3006
  0
VERTEX
  8
Unknown_Line_Type
  70
32
  10
2106782.27
  20
2888170.64
  30
3006
  0
VERTEX
  8
Unknown_Line_Type
  70
32
  10
2106778.73
  20
2888174.60
  30
3006
  0
VERTEX
  8
Unknown_Line_Type
  70
32
  10
2106771.71
  20
2888184.94
  30
3006
  0
VERTEX
  8
Unknown_Line_Type
  70
32
  10
2106767.33
  20
2888190.69
  30
3006
  0
VERTEX
  8
Unknown_Line_Type
  70
32
  10
2106758.21
  20
2888192.55
  30
3006
  0
VERTEX
  8
Unknown_Line_Type
  70
32
  10
2106745.90
  20
2888195.04
  30
3006
  0
VERTEX
  8
Unknown_Line_Type
  70
32
  10
2106743.77
  20
2888198.02
  30
3006
  0
VERTEX
  8
Unknown_Line_Type
  70
32
  10
2106742.56
  20
2888205.92
  30
3006
  0
VERTEX
  8
Unknown_Line_Type
  70
32
  10
2106742.21
  20
2888208.66
  30
3006
  0
VERTEX
  8
Unknown_Line_Type
  70
32
  10
2106739.62
  20
2888209.19
  30
3006
  0
VERTEX
  8
Unknown_Line_Type
  70
32
  10
2106726.96
  20
2888208.65
  30
3006
  0
VERTEX
  8
Unknown_Line_Type
  70
32
  10
2106719.30
  20
2888210.30
  30
3006
  0
VERTEX
  8
Unknown_Line_Type
  70
32
  10
2106713.81
  20
2888207.69
  30
3006
  0
VERTEX
  8
Unknown_Line_Type
  70
32
  10
2106704.98
  20
2888204.16
  30
3006
  0
VERTEX
  8
Unknown_Line_Type
  70
32
  10
2106700.80
  20
2888205.11
  30
3006
  0
VERTEX
  8
Unknown_Line_Type
  70
32
  10
2106691.87
  20
2888204.43
  30
3006
  0
VERTEX
  8
Unknown_Line_Type
  70
32
  10
2106686.06
  20
2888203.91
  30
3006
  0
VERTEX
  8
Unknown_Line_Type
  70
32
  10
2106683.05
  20
2888201.87
  30
3006
  0
VERTEX
  8
Unknown_Line_Type
  70
32
  10
2106681.52
  20
2888200.42
  30
3006
  0
VERTEX
  8
Unknown_Line_Type
  70
32
  10
2106675.81
  20
2888200.38
  30
3006
  0
VERTEX
  8
Unknown_Line_Type
  70
32
  10
2106669.06
  20
2888195.31
  30
3006
  0
VERTEX
  8
Unknown_Line_Type
  70
32
  10
2106661.39
  20
2888190.31
  30
3006
  0
VERTEX
  8
Unknown_Line_Type
  70
32
  10
2106655.99
  20
2888188.13
  30
3006
  0
VERTEX
  8
Unknown_Line_Type
  70
32
  10
2106650.17
  20
2888189.24
  30
3006
  0
VERTEX
  8
Unknown_Line_Type
  70
32
  10
2106648.33
  20
2888191.54
  30
3006
  0
VERTEX
  8
Unknown_Line_Type
  70
32
  10
2106645.49
  20
2888194.60
  30
3006
  0
VERTEX
  8
Unknown_Line_Type
  70
32
  10
2106641.98
  20
2888195.67
  30
3006
  0
VERTEX
  8
Unknown_Line_Type
  70
32
  10
2106640.70
  20
2888197.64
  30
3006
  0
VERTEX
  8
Unknown_Line_Type
  70
32
  10
2106635.53
  20
2888198.40
  30
3006
  0
VERTEX
  8
Unknown_Line_Type
  70
32
  10
2106627.42
  20
2888199.54
  30
3006
  0
VERTEX
  8
Unknown_Line_Type
  70
32
  10
2106623.15
  20
2888201.05
  30
3006
  0
VERTEX
  8
Unknown_Line_Type
  70
32
  10
2106615.64
  20
2888203.54
  30
3006
  0
VERTEX
  8
Unknown_Line_Type
  70
32
  10
2106607.27
  20
2888201.53
  30
3006
  0
VERTEX
  8
Unknown_Line_Type
  70
32
  10
2106602.72
  20
2888200.30
  30
3006
  0
VERTEX
  8
Unknown_Line_Type
  70
32
  10
2106599.34
  20
2888203.83
  30
3006
  0
VERTEX
  8
Unknown_Line_Type
  70
32
  10
2106594.64
  20
2888208.99
  30
3006
  0
VERTEX
  8
Unknown_Line_Type
  70
32
  10
2106591.25
  20
2888210.08
  30
3006
  0
VERTEX
  8
Unknown_Line_Type
  70
32
  10
2106584.31
  20
2888206.64
  30
3006
  0
VERTEX
  8
Unknown_Line_Type
  70
32
  10
2106577.14
  20
2888204.40
  30
3006
  0
VERTEX
  8
Unknown_Line_Type
  70
32
  10
2106573.83
  20
2888207.50
  30
3006
  0
VERTEX
  8
Unknown_Line_Type
  70
32
  10
2106572.76
  20
2888213.07
  30
3006
  0
VERTEX
  8
Unknown_Line_Type
  70
32
  10
2106572.28
  20
2888215.57
  30
3006
  0
VERTEX
  8
Unknown_Line_Type
  70
32
  10
2106570.80
  20
2888216.02
  30
3006
  0
VERTEX
  8
Unknown_Line_Type
  70
32
  10
2106569.07
  20
2888215.61
  30
3006
  0
VERTEX
  8
Unknown_Line_Type
  70
32
  10
2106568.41
  20
2888213.20
  30
3006
  0
VERTEX
  8
Unknown_Line_Type
  70
32
  10
2106561.41
  20
2888207.88
  30
3006
  0
VERTEX
  8
Unknown_Line_Type
  70
32
  10
2106558.68
  20
2888204.62
  30
3006
  0
VERTEX
  8
Unknown_Line_Type
  70
32
  10
2106552.38
  20
2888208.35
  30
3006
  0
VERTEX
  8
Unknown_Line_Type
  70
32
  10
2106547.51
  20
2888208.83
  30
3006
  0
VERTEX
  8
Unknown_Line_Type
  70
32
  10
2106543.63
  20
2888212.13
  30
3006
  0
VERTEX
  8
Unknown_Line_Type
  70
32
  10
2106538.24
  20
2888210.33
  30
3006
  0
VERTEX
  8
Unknown_Line_Type
  70
32
  10
2106537.04
  20
2888209.57
  30
3006
  0
VERTEX
  8
Unknown_Line_Type
  70
32
  10
2106530.67
  20
2888209.59
  30
3006
  0
VERTEX
  8
Unknown_Line_Type
  70
32
  10
2106525.91
  20
2888209.01
  30
3006
  0
VERTEX
  8
Unknown_Line_Type
  70
32
  10
2106524.47
  20
2888211.87
  30
3006
  0
VERTEX
  8
Unknown_Line_Type
  70
32
  10
2106517.09
  20
2888213.67
  30
3006
  0
VERTEX
  8
Unknown_Line_Type
  70
32
  10
2106510.22
  20
2888218.26
  30
3006
  0
VERTEX
  8
Unknown_Line_Type
  70
32
  10
2106509.29
  20
2888221.27
  30
3006
  0
VERTEX
  8
Unknown_Line_Type
  70
32
  10
2106504.70
  20
2888226.87
  30
3006
  0
VERTEX
  8
Unknown_Line_Type
  70
32
  10
2106500.92
  20
2888231.25
  30
3006
  0
VERTEX
  8
Unknown_Line_Type
  70
32
  10
2106498.52
  20
2888235.56
  30
3006
  0
VERTEX
  8
Unknown_Line_Type
  70
32
  10
2106494.81
  20
2888237.33
  30
3006
  0
VERTEX
  8
Unknown_Line_Type
  70
32
  10
2106492.29
  20
2888237.39
  30
3006
  0
SEQEND
  8
Unknown_Line_Type
  0
POLYLINE
  8
Unknown_Line_Type
  70
8
  66
1
 62
0
 39
0
  0
VERTEX
  8
Unknown_Line_Type
  70
32
  10
2106439.47
  20
2887635.00
  30
3008
  0
VERTEX
  8
Unknown_Line_Type
  70
32
  10
2106442.03
  20
2887637.65
  30
3008
  0
VERTEX
  8
Unknown_Line_Type
  70
32
  10
2106451.39
  20
2887643.08
  30
3008
  0
VERTEX
  8
Unknown_Line_Type
  70
32
  10
2106449.55
  20
2887648.35
  30
3008
  0
VERTEX
  8
Unknown_Line_Type
  70
32
  10
2106447.44
  20
2887651.74
  30
3008
  0
VERTEX
  8
Unknown_Line_Type
  70
32
  10
2106438.36
  20
2887661.34
  30
3008
  0
VERTEX
  8
Unknown_Line_Type
  70
32
  10
2106437.57
  20
2887662.57
  30
3008
  0
VERTEX
  8
Unknown_Line_Type
  70
32
  10
2106439.89
  20
2887671.95
  30
3008
  0
VERTEX
  8
Unknown_Line_Type
  70
32
  10
2106440.69
  20
2887674.83
  30
3008
  0
VERTEX
  8
Unknown_Line_Type
  70
32
  10
2106440.36
  20
2887679.88
  30
3008
  0
VERTEX
  8
Unknown_Line_Type
  70
32
  10
2106453.36
  20
2887671.17
  30
3008
  0
VERTEX
  8
Unknown_Line_Type
  70
32
  10
2106459.15
  20
2887669.80
  30
3008
  0
VERTEX
  8
Unknown_Line_Type
  70
32
  10
2106461.86
  20
2887675.52
  30
3008
  0
VERTEX
  8
Unknown_Line_Type
  70
32
  10
2106464.67
  20
2887682.34
  30
3008
  0
VERTEX
  8
Unknown_Line_Type
  70
32
  10
2106461.87
  20
2887688.20
  30
3008
  0
VERTEX
  8
Unknown_Line_Type
  70
32
  10
2106457.28
  20
2887694.62
  30
3008
  0
VERTEX
  8
Unknown_Line_Type
  70
32
  10
2106465.55
  20
2887701.08
  30
3008
  0
VERTEX
  8
Unknown_Line_Type
  70
32
  10
2106470.59
  20
2887698.54
  30
3008
  0
VERTEX
  8
Unknown_Line_Type
  70
32
  10
2106471.11
  20
2887695.36
  30
3008
  0
VERTEX
  8
Unknown_Line_Type
  70
32
  10
2106473.94
  20
2887691.74
  30
3008
  0
VERTEX
  8
Unknown_Line_Type
  70
32
  10
2106476.07
  20
2887695.55
  30
3008
  0
VERTEX
  8
Unknown_Line_Type
  70
32
  10
2106477.90
  20
2887698.14
  30
3008
  0
VERTEX
  8
Unknown_Line_Type
  70
32
  10
2106478.11
  20
2887702.11
  30
3008
  0
VERTEX
  8
Unknown_Line_Type
  70
32
  10
2106480.65
  20
2887705.76
  30
3008
  0
VERTEX
  8
Unknown_Line_Type
  70
32
  10
2106475.48
  20
2887709.98
  30
3008
  0
VERTEX
  8
Unknown_Line_Type
  70
32
  10
2106471.04
  20
2887714.70
  30
3008
  0
VERTEX
  8
Unknown_Line_Type
  70
32
  10
2106463.29
  20
2887716.74
  30
3008
  0
VERTEX
  8
Unknown_Line_Type
  70
32
  10
2106459.90
  20
2887720.36
  30
3008
  0
VERTEX
  8
Unknown_Line_Type
  70
32
  10
2106456.44
  20
2887717.39
  30
3008
  0
VERTEX
  8
Unknown_Line_Type
  70
32
  10
2106458.42
  20
2887712.73
  30
3008
  0
VERTEX
  8
Unknown_Line_Type
  70
32
  10
2106449.24
  20
2887709.02
  30
3008
  0
VERTEX
  8
Unknown_Line_Type
  70
32
  10
2106447.20
  20
2887713.39
  30
3008
  0
VERTEX
  8
Unknown_Line_Type
  70
32
  10
2106446.63
  20
2887717.71
  30
3008
  0
VERTEX
  8
Unknown_Line_Type
  70
32
  10
2106454.51
  20
2887725.71
  30
3008
  0
VERTEX
  8
Unknown_Line_Type
  70
32
  10
2106458.97
  20
2887729.82
  30
3008
  0
VERTEX
  8
Unknown_Line_Type
  70
32
  10
2106469.71
  20
2887732.01
  30
3008
  0
VERTEX
  8
Unknown_Line_Type
  70
32
  10
2106476.73
  20
2887731.34
  30
3008
  0
VERTEX
  8
Unknown_Line_Type
  70
32
  10
2106477.94
  20
2887734.31
  30
3008
  0
VERTEX
  8
Unknown_Line_Type
  70
32
  10
2106478.28
  20
2887739.91
  30
3008
  0
VERTEX
  8
Unknown_Line_Type
  70
32
  10
2106473.18
  20
2887746.98
  30
3008
  0
VERTEX
  8
Unknown_Line_Type
  70
32
  10
2106471.20
  20
2887759.12
  30
3008
  0
VERTEX
  8
Unknown_Line_Type
  70
32
  10
2106464.08
  20
2887770.64
  30
3008
  0
VERTEX
  8
Unknown_Line_Type
  70
32
  10
2106467.92
  20
2887772.03
  30
3008
  0
VERTEX
  8
Unknown_Line_Type
  70
32
  10
2106477.24
  20
2887776.57
  30
3008
  0
VERTEX
  8
Unknown_Line_Type
  70
32
  10
2106479.60
  20
2887791.63
  30
3008
  0
VERTEX
  8
Unknown_Line_Type
  70
32
  10
2106483.01
  20
2887795.25
  30
3008
  0
VERTEX
  8
Unknown_Line_Type
  70
32
  10
2106484.56
  20
2887801.13
  30
3008
  0
VERTEX
  8
Unknown_Line_Type
  70
32
  10
2106493.73
  20
2887801.90
  30
3008
  0
VERTEX
  8
Unknown_Line_Type
  70
32
  10
2106501.18
  20
2887805.74
  30
3008
  0
VERTEX
  8
Unknown_Line_Type
  70
32
  10
2106504.86
  20
2887810.05
  30
3008
  0
VERTEX
  8
Unknown_Line_Type
  70
32
  10
2106502.71
  20
2887814.05
  30
3008
  0
VERTEX
  8
Unknown_Line_Type
  70
32
  10
2106496.68
  20
2887819.03
  30
3008
  0
VERTEX
  8
Unknown_Line_Type
  70
32
  10
2106487.72
  20
2887821.76
  30
3008
  0
VERTEX
  8
Unknown_Line_Type
  70
32
  10
2106491.45
  20
2887828.87
  30
3008
  0
VERTEX
  8
Unknown_Line_Type
  70
32
  10
2106490.75
  20
2887836.55
  30
3008
  0
VERTEX
  8
Unknown_Line_Type
  70
32
  10
2106483.66
  20
2887841.00
  30
3008
  0
VERTEX
  8
Unknown_Line_Type
  70
32
  10
2106487.31
  20
2887843.31
  30
3008
  0
VERTEX
  8
Unknown_Line_Type
  70
32
  10
2106494.98
  20
2887844.30
  30
3008
  0
VERTEX
  8
Unknown_Line_Type
  70
32
  10
2106504.21
  20
2887843.69
  30
3008
  0
VERTEX
  8
Unknown_Line_Type
  70
32
  10
2106505.39
  20
2887846.09
  30
3008
  0
VERTEX
  8
Unknown_Line_Type
  70
32
  10
2106518.12
  20
2887852.05
  30
3008
  0
VERTEX
  8
Unknown_Line_Type
  70
32
  10
2106524.46
  20
2887854.55
  30
3008
  0
VERTEX
  8
Unknown_Line_Type
  70
32
  10
2106536.02
  20
2887854.89
  30
3008
  0
VERTEX
  8
Unknown_Line_Type
  70
32
  10
2106538.78
  20
2887853.09
  30
3008
  0
VERTEX
  8
Unknown_Line_Type
  70
32
  10
2106544.13
  20
2887852.88
  30
3008
  0
VERTEX
  8
Unknown_Line_Type
  70
32
  10
2106552.83
  20
2887853.99
  30
3008
  0
VERTEX
  8
Unknown_Line_Type
  70
32
  10
2106567.09
  20
2887855.47
  30
3008
  0
VERTEX
  8
Unknown_Line_Type
  70
32
  10
2106567.56
  20
2887854.36
  30
3008
  0
VERTEX
  8
Unknown_Line_Type
  70
32
  10
2106577.21
  20
2887852.12
  30
3008
  0
VERTEX
  8
Unknown_Line_Type
  70
32
  10
2106587.62
  20
2887853.31
  30
3008
  0
VERTEX
  8
Unknown_Line_Type
  70
32
  10
2106587.28
  20
2887861.78
  30
3008
  0
VERTEX
  8
Unknown_Line_Type
  70
32
  10
2106593.18
  20
2887867.96
  30
3008
  0
VERTEX
  8
Unknown_Line_Type
  70
32
  10
2106598.93
  20
2887871.14
  30
3008
  0
VERTEX
  8
Unknown_Line_Type
  70
32
  10
2106603.99
  20
2887874.72
  30
3008
  0
VERTEX
  8
Unknown_Line_Type
  70
32
  10
2106604.71
  20
2887880.32
  30
3008
  0
VERTEX
  8
Unknown_Line_Type
  70
32
  10
2106612.28
  20
2887877.16
  30
3008
  0
VERTEX
  8
Unknown_Line_Type
  70
32
  10
2106617.71
  20
2887873.66
  30
3008
  0
VERTEX
  8
Unknown_Line_Type
  70
32
  10
2106619.79
  20
2887875.92
  30
3008
  0
VERTEX
  8
Unknown_Line_Type
  70
32
  10
2106624.85
  20
2887879.04
  30
3008
  0
VERTEX
  8
Unknown_Line_Type
  70
32
  10
2106636.36
  20
2887888.21
  30
3008
  0
VERTEX
  8
Unknown_Line_Type
  70
32
  10
2106639.89
  20
2887894.81
  30
3008
  0
VERTEX
  8
Unknown_Line_Type
  70
32
  10
2106640.34
  20
2887895.95
  30
3008
  0
VERTEX
  8
Unknown_Line_Type
  70
32
  10
2106647.21
  20
2887904.64
  30
3008
  0
VERTEX
  8
Unknown_Line_Type
  70
32
  10
2106650.30
  20
2887903.60
  30
3008
  0
VERTEX
  8
Unknown_Line_Type
  70
32
  10
2106655.15
  20
2887905.32
  30
3008
  0
VERTEX
  8
Unknown_Line_Type
  70
32
  10
2106661.75
  20
2887913.85
  30
3008
  0
VERTEX
  8
Unknown_Line_Type
  70
32
  10
2106664.10
  20
2887917.58
  30
3008
  0
VERTEX
  8
Unknown_Line_Type
  70
32
  10
2106668.35
  20
2887919.61
  30
3008
  0
VERTEX
  8
Unknown_Line_Type
  70
32
  10
2106671.51
  20
2887925.13
  30
3008
  0
VERTEX
  8
Unknown_Line_Type
  70
32
  10
2106678.28
  20
2887924.73
  30
3008
  0
VERTEX
  8
Unknown_Line_Type
  70
32
  10
2106682.20
  20
2887924.05
  30
3008
  0
VERTEX
  8
Unknown_Line_Type
  70
32
  10
2106690.87
  20
2887928.32
  30
3008
  0
VERTEX
  8
Unknown_Line_Type
  70
32
  10
2106695.33
  20
2887929.43
  30
3008
  0
VERTEX
  8
Unknown_Line_Type
  70
32
  10
2106700.47
  20
2887932.87
  30
3008
  0
VERTEX
  8
Unknown_Line_Type
  70
32
  10
2106707.46
  20
2887938.20
  30
3008
  0
VERTEX
  8
Unknown_Line_Type
  70
32
  10
2106709.83
  20
2887942.31
  30
3008
  0
VERTEX
  8
Unknown_Line_Type
  70
32
  10
2106715.28
  20
2887944.40
  30
3008
  0
VERTEX
  8
Unknown_Line_Type
  70
32
  10
2106715.24
  20
2887949.90
  30
3008
  0
VERTEX
  8
Unknown_Line_Type
  70
32
  10
2106720.04
  20
2887957.02
  30
3008
  0
VERTEX
  8
Unknown_Line_Type
  70
32
  10
2106722.99
  20
2887958.52
  30
3008
  0
VERTEX
  8
Unknown_Line_Type
  70
32
  10
2106727.63
  20
2887964.70
  30
3008
  0
VERTEX
  8
Unknown_Line_Type
  70
32
  10
2106730.31
  20
2887968.09
  30
3008
  0
VERTEX
  8
Unknown_Line_Type
  70
32
  10
2106736.31
  20
2887969.03
  30
3008
  0
VERTEX
  8
Unknown_Line_Type
  70
32
  10
2106738.40
  20
2887969.85
  30
3008
  0
VERTEX
  8
Unknown_Line_Type
  70
32
  10
2106746.88
  20
2887967.55
  30
3008
  0
VERTEX
  8
Unknown_Line_Type
  70
32
  10
2106754.02
  20
2887966.77
  30
3008
  0
VERTEX
  8
Unknown_Line_Type
  70
32
  10
2106758.98
  20
2887968.53
  30
3008
  0
VERTEX
  8
Unknown_Line_Type
  70
32
  10
2106761.27
  20
2887968.99
  30
3008
  0
VERTEX
  8
Unknown_Line_Type
  70
32
  10
2106763.59
  20
2887968.24
  30
3008
  0
VERTEX
  8
Unknown_Line_Type
  70
32
  10
2106765.47
  20
2887970.84
  30
3008
  0
VERTEX
  8
Unknown_Line_Type
  70
32
  10
2106768.64
  20
2887972.46
  30
3008
  0
VERTEX
  8
Unknown_Line_Type
  70
32
  10
2106775.05
  20
2887970.91
  30
3008
  0
VERTEX
  8
Unknown_Line_Type
  70
32
  10
2106787.60
  20
2887972.58
  30
3008
  0
VERTEX
  8
Unknown_Line_Type
  70
32
  10
2106793.40
  20
2887970.98
  30
3008
  0
VERTEX
  8
Unknown_Line_Type
  70
32
  10
2106797.94
  20
2887971.49
  30
3008
  0
VERTEX
  8
Unknown_Line_Type
  70
32
  10
2106803.60
  20
2887974.50
  30
3008
  0
VERTEX
  8
Unknown_Line_Type
  70
32
  10
2106810.23
  20
2887976.78
  30
3008
  0
VERTEX
  8
Unknown_Line_Type
  70
32
  10
2106817.58
  20
2887975.08
  30
3008
  0
VERTEX
  8
Unknown_Line_Type
  70
32
  10
2106823.80
  20
2887978.91
  30
3008
  0
VERTEX
  8
Unknown_Line_Type
  70
32
  10
2106827.53
  20
2887979.21
  30
3008
  0
VERTEX
  8
Unknown_Line_Type
  70
32
  10
2106832.58
  20
2887976.96
  30
3008
  0
VERTEX
  8
Unknown_Line_Type
  70
32
  10
2106840.44
  20
2887981.35
  30
3008
  0
VERTEX
  8
Unknown_Line_Type
  70
32
  10
2106847.62
  20
2887981.41
  30
3008
  0
VERTEX
  8
Unknown_Line_Type
  70
32
  10
2106849.97
  20
2887982.80
  30
3008
  0
VERTEX
  8
Unknown_Line_Type
  70
32
  10
2106860.39
  20
2887979.42
  30
3008
  0
VERTEX
  8
Unknown_Line_Type
  70
32
  10
2106862.87
  20
2887976.99
  30
3008
  0
VERTEX
  8
Unknown_Line_Type
  70
32
  10
2106871.07
  20
2887978.20
  30
3008
  0
VERTEX
  8
Unknown_Line_Type
  70
32
  10
2106876.41
  20
2887982.74
  30
3008
  0
VERTEX
  8
Unknown_Line_Type
  70
32
  10
2106877.82
  20
2887982.84
  30
3008
  0
VERTEX
  8
Unknown_Line_Type
  70
32
  10
2106882.10
  20
2887979.65
  30
3008
  0
VERTEX
  8
Unknown_Line_Type
  70
32
  10
2106885.70
  20
2887981.66
  30
3008
  0
VERTEX
  8
Unknown_Line_Type
  70
32
  10
2106890.46
  20
2887981.45
  30
3008
  0
VERTEX
  8
Unknown_Line_Type
  70
32
  10
2106897.05
  20
2887983.56
  30
3008
  0
VERTEX
  8
Unknown_Line_Type
  70
32
  10
2106897.77
  20
2887985.53
  30
3008
  0
VERTEX
  8
Unknown_Line_Type
  70
32
  10
2106904.08
  20
2887984.86
  30
3008
  0
VERTEX
  8
Unknown_Line_Type
  70
32
  10
2106909.08
  20
2887984.16
  30
3008
  0
VERTEX
  8
Unknown_Line_Type
  70
32
  10
2106914.97
  20
2887982.69
  30
3008
  0
VERTEX
  8
Unknown_Line_Type
  70
32
  10
2106923.59
  20
2887981.07
  30
3008
  0
VERTEX
  8
Unknown_Line_Type
  70
32
  10
2106927.73
  20
2887982.94
  30
3008
  0
VERTEX
  8
Unknown_Line_Type
  70
32
  10
2106930.63
  20
2887981.23
  30
3008
  0
VERTEX
  8
Unknown_Line_Type
  70
32
  10
2106935.21
  20
2887981.38
  30
3008
  0
VERTEX
  8
Unknown_Line_Type
  70
32
  10
2106945.54
  20
2887984.55
  30
3008
  0
VERTEX
  8
Unknown_Line_Type
  70
32
  10
2106947.80
  20
2887987.92
  30
3008
  0
VERTEX
  8
Unknown_Line_Type
  70
32
  10
2106956.37
  20
2887986.99
  30
3008
  0
VERTEX
  8
Unknown_Line_Type
  70
32
  10
2106956.63
  20
2887984.52
  30
3008
  0
VERTEX
  8
Unknown_Line_Type
  70
32
  10
2106965.43
  20
2887983.87
  30
3008
  0
VERTEX
  8
Unknown_Line_Type
  70
32
  10
2106967.36
  20
2887985.21
  30
3008
  0
VERTEX
  8
Unknown_Line_Type
  70
32
  10
2106973.70
  20
2887984.39
  30
3008
  0
VERTEX
  8
Unknown_Line_Type
  70
32
  10
2106980.44
  20
2887985.90
  30
3008
  0
VERTEX
  8
Unknown_Line_Type
  70
32
  10
2106980.87
  20
2887980.12
  30
3008
  0
VERTEX
  8
Unknown_Line_Type
  70
32
  10
2106984.39
  20
2887977.72
  30
3008
  0
VERTEX
  8
Unknown_Line_Type
  70
32
  10
2106986.93
  20
2887978.12
  30
3008
  0
VERTEX
  8
Unknown_Line_Type
  70
32
  10
2106989.23
  20
2887980.08
  30
3008
  0
VERTEX
  8
Unknown_Line_Type
  70
32
  10
2106993.69
  20
2887984.23
  30
3008
  0
VERTEX
  8
Unknown_Line_Type
  70
32
  10
2106996.56
  20
2887989.62
  30
3008
  0
VERTEX
  8
Unknown_Line_Type
  70
32
  10
2107001.59
  20
2887989.58
  30
3008
  0
VERTEX
  8
Unknown_Line_Type
  70
32
  10
2107004.80
  20
2887988.88
  30
3008
  0
VERTEX
  8
Unknown_Line_Type
  70
32
  10
2107013.54
  20
2887987.95
  30
3008
  0
VERTEX
  8
Unknown_Line_Type
  70
32
  10
2107019.04
  20
2887990.84
  30
3008
  0
VERTEX
  8
Unknown_Line_Type
  70
32
  10
2107021.62
  20
2887993.23
  30
3008
  0
VERTEX
  8
Unknown_Line_Type
  70
32
  10
2107026.25
  20
2887998.66
  30
3008
  0
VERTEX
  8
Unknown_Line_Type
  70
32
  10
2107032.09
  20
2887999.18
  30
3008
  0
VERTEX
  8
Unknown_Line_Type
  70
32
  10
2107036.08
  20
2887998.63
  30
3008
  0
VERTEX
  8
Unknown_Line_Type
  70
32
  10
2107043.29
  20
2888001.90
  30
3008
  0
VERTEX
  8
Unknown_Line_Type
  70
32
  10
2107046.67
  20
2888005.76
  30
3008
  0
VERTEX
  8
Unknown_Line_Type
  70
32
  10
2107049.37
  20
2888007.28
  30
3008
  0
VERTEX
  8
Unknown_Line_Type
  70
32
  10
2107051.88
  20
2888014.43
  30
3008
  0
VERTEX
  8
Unknown_Line_Type
  70
32
  10
2107053.98
  20
2888015.75
  30
3008
  0
VERTEX
  8
Unknown_Line_Type
  70
32
  10
2107055.73
  20
2888014.57
  30
3008
  0
VERTEX
  8
Unknown_Line_Type
  70
32
  10
2107062.60
  20
2888022.56
  30
3008
  0
VERTEX
  8
Unknown_Line_Type
  70
32
  10
2107066.92
  20
2888023.74
  30
3008
  0
VERTEX
  8
Unknown_Line_Type
  70
32
  10
2107079.20
  20
2888017.55
  30
3008
  0
VERTEX
  8
Unknown_Line_Type
  70
32
  10
2107087.43
  20
2888020.37
  30
3008
  0
VERTEX
  8
Unknown_Line_Type
  70
32
  10
2107090.12
  20
2888028.15
  30
3008
  0
VERTEX
  8
Unknown_Line_Type
  70
32
  10
2107092.13
  20
2888030.54
  30
3008
  0
VERTEX
  8
Unknown_Line_Type
  70
32
  10
2107092.71
  20
2888030.60
  30
3008
  0
VERTEX
  8
Unknown_Line_Type
  70
32
  10
2107100.21
  20
2888030.99
  30
3008
  0
VERTEX
  8
Unknown_Line_Type
  70
32
  10
2107111.31
  20
2888031.96
  30
3008
  0
VERTEX
  8
Unknown_Line_Type
  70
32
  10
2107118.05
  20
2888036.91
  30
3008
  0
VERTEX
  8
Unknown_Line_Type
  70
32
  10
2107124.09
  20
2888032.32
  30
3008
  0
VERTEX
  8
Unknown_Line_Type
  70
32
  10
2107128.67
  20
2888034.88
  30
3008
  0
VERTEX
  8
Unknown_Line_Type
  70
32
  10
2107130.20
  20
2888041.21
  30
3008
  0
VERTEX
  8
Unknown_Line_Type
  70
32
  10
2107135.24
  20
2888043.93
  30
3008
  0
VERTEX
  8
Unknown_Line_Type
  70
32
  10
2107137.24
  20
2888046.91
  30
3008
  0
VERTEX
  8
Unknown_Line_Type
  70
32
  10
2107149.11
  20
2888056.61
  30
3008
  0
VERTEX
  8
Unknown_Line_Type
  70
32
  10
2107151.16
  20
2888056.95
  30
3008
  0
VERTEX
  8
Unknown_Line_Type
  70
32
  10
2107154.99
  20
2888056.90
  30
3008
  0
VERTEX
  8
Unknown_Line_Type
  70
32
  10
2107164.78
  20
2888063.29
  30
3008
  0
VERTEX
  8
Unknown_Line_Type
  70
32
  10
2107171.43
  20
2888067.11
  30
3008
  0
VERTEX
  8
Unknown_Line_Type
  70
32
  10
2107177.90
  20
2888066.19
  30
3008
  0
VERTEX
  8
Unknown_Line_Type
  70
32
  10
2107184.85
  20
2888072.23
  30
3008
  0
VERTEX
  8
Unknown_Line_Type
  70
32
  10
2107186.03
  20
2888076.11
  30
3008
  0
SEQEND
  8
Unknown_Line_Type
  0
POLYLINE
  8
Unknown_Line_Type
  70
8
  66
1
 62
0
 39
0
  0
VERTEX
  8
Unknown_Line_Type
  70
32
  10
2107163.36
  20
2888095.00
  30
3008
  0
VERTEX
  8
Unknown_Line_Type
  70
32
  10
2107161.79
  20
2888093.19
  30
3008
  0
VERTEX
  8
Unknown_Line_Type
  70
32
  10
2107156.12
  20
2888092.30
  30
3008
  0
VERTEX
  8
Unknown_Line_Type
  70
32
  10
2107150.64
  20
2888085.40
  30
3008
  0
VERTEX
  8
Unknown_Line_Type
  70
32
  10
2107148.46
  20
2888079.52
  30
3008
  0
VERTEX
  8
Unknown_Line_Type
  70
32
  10
2107141.74
  20
2888075.13
  30
3008
  0
VERTEX
  8
Unknown_Line_Type
  70
32
  10
2107133.29
  20
2888074.67
  30
3008
  0
VERTEX
  8
Unknown_Line_Type
  70
32
  10
2107119.86
  20
2888077.09
  30
3008
  0
VERTEX
  8
Unknown_Line_Type
  70
32
  10
2107113.21
  20
2888077.27
  30
3008
  0
VERTEX
  8
Unknown_Line_Type
  70
32
  10
2107111.70
  20
2888083.41
  30
3008
  0
VERTEX
  8
Unknown_Line_Type
  70
32
  10
2107105.14
  20
2888088.26
  30
3008
  0
VERTEX
  8
Unknown_Line_Type
  70
32
  10
2107100.24
  20
2888094.10
  30
3008
  0
VERTEX
  8
Unknown_Line_Type
  70
32
  10
2107104.11
  20
2888099.09
  30
3008
  0
VERTEX
  8
Unknown_Line_Type
  70
32
  10
2107105.18
  20
2888104.13
  30
3008
  0
VERTEX
  8
Unknown_Line_Type
  70
32
  10
2107116.09
  20
2888107.09
  30
3008
  0
VERTEX
  8
Unknown_Line_Type
  70
32
  10
2107118.44
  20
2888096.12
  30
3008
  0
VERTEX
  8
Unknown_Line_Type
  70
32
  10
2107116.15
  20
2888092.22
  30
3008
  0
VERTEX
  8
Unknown_Line_Type
  70
32
  10
2107120.13
  20
2888086.84
  30
3008
  0
VERTEX
  8
Unknown_Line_Type
  70
32
  10
2107132.22
  20
2888087.14
  30
3008
  0
VERTEX
  8
Unknown_Line_Type
  70
32
  10
2107136.59
  20
2888093.86
  30
3008
  0
VERTEX
  8
Unknown_Line_Type
  70
32
  10
2107134.36
  20
2888104.23
  30
3008
  0
VERTEX
  8
Unknown_Line_Type
  70
32
  10
2107126.76
  20
2888115.40
  30
3008
  0
VERTEX
  8
Unknown_Line_Type
  70
32
  10
2107129.13
  20
2888123.53
  30
3008
  0
SEQEND
  8
Unknown_Line_Type
  0
POLYLINE
  8
Unknown_Line_Type
  70
8
  66
1
 62
0
 39
0
  0
VERTEX
  8
Unknown_Line_Type
  70
32
  10
2107106.95
  20
2888142.01
  30
3008
  0
VERTEX
  8
Unknown_Line_Type
  70
32
  10
2107103.03
  20
2888140.62
  30
3008
  0
VERTEX
  8
Unknown_Line_Type
  70
32
  10
2107096.15
  20
2888149.58
  30
3008
  0
VERTEX
  8
Unknown_Line_Type
  70
32
  10
2107093.81
  20
2888152.72
  30
3008
  0
VERTEX
  8
Unknown_Line_Type
  70
32
  10
2107085.01
  20
2888159.23
  30
3008
  0
VERTEX
  8
Unknown_Line_Type
  70
32
  10
2107078.52
  20
2888165.18
  30
3008
  0
VERTEX
  8
Unknown_Line_Type
  70
32
  10
2107068.88
  20
2888160.26
  30
3008
  0
VERTEX
  8
Unknown_Line_Type
  70
32
  10
2107066.63
  20
2888154.22
  30
3008
  0
VERTEX
  8
Unknown_Line_Type
  70
32
  10
2107058.95
  20
2888155.23
  30
3008
  0
VERTEX
  8
Unknown_Line_Type
  70
32
  10
2107054.82
  20
2888152.18
  30
3008
  0
VERTEX
  8
Unknown_Line_Type
  70
32
  10
2107048.82
  20
2888156.92
  30
3008
  0
VERTEX
  8
Unknown_Line_Type
  70
32
  10
2107048.84
  20
2888158.29
  30
3008
  0
VERTEX
  8
Unknown_Line_Type
  70
32
  10
2107039.05
  20
2888169.96
  30
3008
  0
VERTEX
  8
Unknown_Line_Type
  70
32
  10
2107036.09
  20
2888166.87
  30
3008
  0
VERTEX
  8
Unknown_Line_Type
  70
32
  10
2107029.84
  20
2888161.08
  30
3008
  0
VERTEX
  8
Unknown_Line_Type
  70
32
  10
2107024.87
  20
2888153.32
  30
3008
  0
VERTEX
  8
Unknown_Line_Type
  70
32
  10
2107009.41
  20
2888155.00
  30
3008
  0
VERTEX
  8
Unknown_Line_Type
  70
32
  10
2107003.86
  20
2888154.62
  30
3008
  0
VERTEX
  8
Unknown_Line_Type
  70
32
  10
2106999.57
  20
2888151.88
  30
3008
  0
VERTEX
  8
Unknown_Line_Type
  70
32
  10
2106989.82
  20
2888152.26
  30
3008
  0
VERTEX
  8
Unknown_Line_Type
  70
32
  10
2106979.67
  20
2888152.22
  30
3008
  0
VERTEX
  8
Unknown_Line_Type
  70
32
  10
2106971.89
  20
2888149.48
  30
3008
  0
VERTEX
  8
Unknown_Line_Type
  70
32
  10
2106969.38
  20
2888148.71
  30
3008
  0
VERTEX
  8
Unknown_Line_Type
  70
32
  10
2106963.35
  20
2888149.59
  30
3008
  0
VERTEX
  8
Unknown_Line_Type
  70
32
  10
2106955.36
  20
2888146.12
  30
3008
  0
VERTEX
  8
Unknown_Line_Type
  70
32
  10
2106948.94
  20
2888145.09
  30
3008
  0
VERTEX
  8
Unknown_Line_Type
  70
32
  10
2106945.31
  20
2888147.36
  30
3008
  0
VERTEX
  8
Unknown_Line_Type
  70
32
  10
2106941.99
  20
2888144.78
  30
3008
  0
VERTEX
  8
Unknown_Line_Type
  70
32
  10
2106937.61
  20
2888142.07
  30
3008
  0
VERTEX
  8
Unknown_Line_Type
  70
32
  10
2106927.49
  20
2888141.42
  30
3008
  0
VERTEX
  8
Unknown_Line_Type
  70
32
  10
2106923.31
  20
2888144.26
  30
3008
  0
VERTEX
  8
Unknown_Line_Type
  70
32
  10
2106913.44
  20
2888146.42
  30
3008
  0
VERTEX
  8
Unknown_Line_Type
  70
32
  10
2106908.82
  20
2888144.91
  30
3008
  0
VERTEX
  8
Unknown_Line_Type
  70
32
  10
2106905.88
  20
2888142.43
  30
3008
  0
VERTEX
  8
Unknown_Line_Type
  70
32
  10
2106902.66
  20
2888141.89
  30
3008
  0
VERTEX
  8
Unknown_Line_Type
  70
32
  10
2106898.33
  20
2888142.40
  30
3008
  0
VERTEX
  8
Unknown_Line_Type
  70
32
  10
2106895.67
  20
2888143.37
  30
3008
  0
VERTEX
  8
Unknown_Line_Type
  70
32
  10
2106894.96
  20
2888144.31
  30
3008
  0
VERTEX
  8
Unknown_Line_Type
  70
32
  10
2106886.95
  20
2888146.94
  30
3008
  0
VERTEX
  8
Unknown_Line_Type
  70
32
  10
2106884.41
  20
2888145.12
  30
3008
  0
VERTEX
  8
Unknown_Line_Type
  70
32
  10
2106883.50
  20
2888145.20
  30
3008
  0
VERTEX
  8
Unknown_Line_Type
  70
32
  10
2106879.36
  20
2888147.59
  30
3008
  0
VERTEX
  8
Unknown_Line_Type
  70
32
  10
2106879.01
  20
2888153.82
  30
3008
  0
VERTEX
  8
Unknown_Line_Type
  70
32
  10
2106879.77
  20
2888153.75
  30
3008
  0
VERTEX
  8
Unknown_Line_Type
  70
32
  10
2106881.62
  20
2888158.58
  30
3008
  0
VERTEX
  8
Unknown_Line_Type
  70
32
  10
2106879.48
  20
2888162.41
  30
3008
  0
VERTEX
  8
Unknown_Line_Type
  70
32
  10
2106875.29
  20
2888163.49
  30
3008
  0
VERTEX
  8
Unknown_Line_Type
  70
32
  10
2106870.92
  20
2888166.80
  30
3008
  0
VERTEX
  8
Unknown_Line_Type
  70
32
  10
2106866.61
  20
2888167.46
  30
3008
  0
VERTEX
  8
Unknown_Line_Type
  70
32
  10
2106854.50
  20
2888168.25
  30
3008
  0
VERTEX
  8
Unknown_Line_Type
  70
32
  10
2106853.25
  20
2888168.91
  30
3008
  0
VERTEX
  8
Unknown_Line_Type
  70
32
  10
2106851.23
  20
2888180.06
  30
3008
  0
VERTEX
  8
Unknown_Line_Type
  70
32
  10
2106848.28
  20
2888183.75
  30
3008
  0
VERTEX
  8
Unknown_Line_Type
  70
32
  10
2106844.33
  20
2888183.22
  30
3008
  0
VERTEX
  8
Unknown_Line_Type
  70
32
  10
2106837.51
  20
2888177.68
  30
3008
  0
VERTEX
  8
Unknown_Line_Type
  70
32
  10
2106833.74
  20
2888179.05
  30
3008
  0
VERTEX
  8
Unknown_Line_Type
  70
32
  10
2106824.90
  20
2888180.55
  30
3008
  0
VERTEX
  8
Unknown_Line_Type
  70
32
  10
2106821.72
  20
2888186.42
  30
3008
  0
VERTEX
  8
Unknown_Line_Type
  70
32
  10
2106819.28
  20
2888189.27
  30
3008
  0
VERTEX
  8
Unknown_Line_Type
  70
32
  10
2106815.93
  20
2888196.16
  30
3008
  0
VERTEX
  8
Unknown_Line_Type
  70
32
  10
2106813.24
  20
2888205.42
  30
3008
  0
VERTEX
  8
Unknown_Line_Type
  70
32
  10
2106813.82
  20
2888211.12
  30
3008
  0
VERTEX
  8
Unknown_Line_Type
  70
32
  10
2106809.65
  20
2888211.66
  30
3008
  0
VERTEX
  8
Unknown_Line_Type
  70
32
  10
2106800.95
  20
2888214.69
  30
3008
  0
VERTEX
  8
Unknown_Line_Type
  70
32
  10
2106792.46
  20
2888216.80
  30
3008
  0
VERTEX
  8
Unknown_Line_Type
  70
32
  10
2106791.57
  20
2888220.96
  30
3008
  0
VERTEX
  8
Unknown_Line_Type
  70
32
  10
2106787.28
  20
2888224.34
  30
3008
  0
VERTEX
  8
Unknown_Line_Type
  70
32
  10
2106783.24
  20
2888224.19
  30
3008
  0
VERTEX
  8
Unknown_Line_Type
  70
32
  10
2106777.56
  20
2888226.42
  30
3008
  0
VERTEX
  8
Unknown_Line_Type
  70
32
  10
2106777.32
  20
2888226.54
  30
3008
  0
VERTEX
  8
Unknown_Line_Type
  70
32
  10
2106776.70
  20
2888230.91
  30
3008
  0
VERTEX
  8
Unknown_Line_Type
  70
32
  10
2106770.00
  20
2888234.26
  30
3008
  0
VERTEX
  8
Unknown_Line_Type
  70
32
  10
2106762.98
  20
2888242.18
  30
3008
  0
VERTEX
  8
Unknown_Line_Type
  70
32
  10
2106758.61
  20
2888244.22
  30
3008
  0
VERTEX
  8
Unknown_Line_Type
  70
32
  10
2106752.78
  20
2888242.61
  30
3008
  0
VERTEX
  8
Unknown_Line_Type
  70
32
  10
2106750.63
  20
2888242.83
  30
3008
  0
VERTEX
  8
Unknown_Line_Type
  70
32
  10
2106747.32
  20
2888249.31
  30
3008
  0
VERTEX
  8
Unknown_Line_Type
  70
32
  10
2106734.76
  20
2888240.76
  30
3008
  0
VERTEX
  8
Unknown_Line_Type
  70
32
  10
2106731.00
  20
2888241.12
  30
3008
  0
VERTEX
  8
Unknown_Line_Type
  70
32
  10
2106725.94
  20
2888244.99
  30
3008
  0
VERTEX
  8
Unknown_Line_Type
  70
32
  10
2106721.43
  20
2888250.18
  30
3008
  0
VERTEX
  8
Unknown_Line_Type
  70
32
  10
2106718.10
  20
2888250.01
  30
3008
  0
VERTEX
  8
Unknown_Line_Type
  70
32
  10
2106718.25
  20
2888246.90
  30
3008
  0
VERTEX
  8
Unknown_Line_Type
  70
32
  10
2106715.88
  20
2888240.85
  30
3008
  0
VERTEX
  8
Unknown_Line_Type
  70
32
  10
2106708.92
  20
2888245.80
  30
3008
  0
VERTEX
  8
Unknown_Line_Type
  70
32
  10
2106705.46
  20
2888250.48
  30
3008
  0
VERTEX
  8
Unknown_Line_Type
  70
32
  10
2106701.64
  20
2888255.81
  30
3008
  0
VERTEX
  8
Unknown_Line_Type
  70
32
  10
2106699.06
  20
2888256.09
  30
3008
  0
VERTEX
  8
Unknown_Line_Type
  70
32
  10
2106697.61
  20
2888258.03
  30
3008
  0
VERTEX
  8
Unknown_Line_Type
  70
32
  10
2106693.74
  20
2888254.43
  30
3008
  0
VERTEX
  8
Unknown_Line_Type
  70
32
  10
2106691.96
  20
2888249.66
  30
3008
  0
VERTEX
  8
Unknown_Line_Type
  70
32
  10
2106690.54
  20
2888247.14
  30
3008
  0
VERTEX
  8
Unknown_Line_Type
  70
32
  10
2106684.50
  20
2888244.02
  30
3008
  0
VERTEX
  8
Unknown_Line_Type
  70
32
  10
2106675.64
  20
2888235.78
  30
3008
  0
VERTEX
  8
Unknown_Line_Type
  70
32
  10
2106670.88
  20
2888225.74
  30
3008
  0
VERTEX
  8
Unknown_Line_Type
  70
32
  10
2106667.77
  20
2888224.82
  30
3008
  0
VERTEX
  8
Unknown_Line_Type
  70
32
  10
2106655.92
  20
2888229.27
  30
3008
  0
VERTEX
  8
Unknown_Line_Type
  70
32
  10
2106650.67
  20
2888224.45
  30
3008
  0
VERTEX
  8
Unknown_Line_Type
  70
32
  10
2106643.93
  20
2888224.23
  30
3008
  0
VERTEX
  8
Unknown_Line_Type
  70
32
  10
2106648.00
  20
2888228.37
  30
3008
  0
VERTEX
  8
Unknown_Line_Type
  70
32
  10
2106652.26
  20
2888233.50
  30
3008
  0
VERTEX
  8
Unknown_Line_Type
  70
32
  10
2106647.27
  20
2888236.26
  30
3008
  0
VERTEX
  8
Unknown_Line_Type
  70
32
  10
2106646.93
  20
2888236.64
  30
3008
  0
VERTEX
  8
Unknown_Line_Type
  70
32
  10
2106644.05
  20
2888237.66
  30
3008
  0
VERTEX
  8
Unknown_Line_Type
  70
32
  10
2106640.18
  20
2888243.09
  30
3008
  0
VERTEX
  8
Unknown_Line_Type
  70
32
  10
2106639.47
  20
2888246.54
  30
3008
  0
VERTEX
  8
Unknown_Line_Type
  70
32
  10
2106632.18
  20
2888250.24
  30
3008
  0
VERTEX
  8
Unknown_Line_Type
  70
32
  10
2106629.80
  20
2888248.54
  30
3008
  0
VERTEX
  8
Unknown_Line_Type
  70
32
  10
2106623.84
  20
2888244.37
  30
3008
  0
VERTEX
  8
Unknown_Line_Type
  70
32
  10
2106620.12
  20
2888240.96
  30
3008
  0
VERTEX
  8
Unknown_Line_Type
  70
32
  10
2106616.42
  20
2888237.59
  30
3008
  0
VERTEX
  8
Unknown_Line_Type
  70
32
  10
2106606.85
  20
2888236.28
  30
3008
  0
VERTEX
  8
Unknown_Line_Type
  70
32
  10
2106601.37
  20
2888236.01
  30
3008
  0
VERTEX
  8
Unknown_Line_Type
  70
32
  10
2106598.51
  20
2888235.22
  30
3008
  0
VERTEX
  8
Unknown_Line_Type
  70
32
  10
2106589.17
  20
2888237.52
  30
3008
  0
VERTEX
  8
Unknown_Line_Type
  70
32
  10
2106581.27
  20
2888240.13
  30
3008
  0
VERTEX
  8
Unknown_Line_Type
  70
32
  10
2106577.27
  20
2888236.66
  30
3008
  0
VERTEX
  8
Unknown_Line_Type
  70
32
  10
2106577.57
  20
2888236.07
  30
3008
  0
VERTEX
  8
Unknown_Line_Type
  70
32
  10
2106574.90
  20
2888232.65
  30
3008
  0
VERTEX
  8
Unknown_Line_Type
  70
32
  10
2106571.12
  20
2888234.10
  30
3008
  0
VERTEX
  8
Unknown_Line_Type
  70
32
  10
2106570.38
  20
2888234.85
  30
3008
  0
VERTEX
  8
Unknown_Line_Type
  70
32
  10
2106563.27
  20
2888232.18
  30
3008
  0
VERTEX
  8
Unknown_Line_Type
  70
32
  10
2106559.24
  20
2888230.62
  30
3008
  0
VERTEX
  8
Unknown_Line_Type
  70
32
  10
2106552.40
  20
2888231.19
  30
3008
  0
VERTEX
  8
Unknown_Line_Type
  70
32
  10
2106547.80
  20
2888229.30
  30
3008
  0
VERTEX
  8
Unknown_Line_Type
  70
32
  10
2106543.22
  20
2888225.45
  30
3008
  0
VERTEX
  8
Unknown_Line_Type
  70
32
  10
2106542.42
  20
2888224.48
  30
3008
  0
VERTEX
  8
Unknown_Line_Type
  70
32
  10
2106536.15
  20
2888222.57
  30
3008
  0
VERTEX
  8
Unknown_Line_Type
  70
32
  10
2106534.29
  20
2888224.83
  30
3008
  0
VERTEX
  8
Unknown_Line_Type
  70
32
  10
2106529.50
  20
2888226.92
  30
3008
  0
VERTEX
  8
Unknown_Line_Type
  70
32
  10
2106525.71
  20
2888233.32
  30
3008
  0
VERTEX
  8
Unknown_Line_Type
  70
32
  10
2106520.79
  20
2888239.62
  30
3008
  0
VERTEX
  8
Unknown_Line_Type
  70
32
  10
2106514.54
  20
2888238.20
  30
3008
  0
VERTEX
  8
Unknown_Line_Type
  70
32
  10
2106512.15
  20
2888242.84
  30
3008
  0
VERTEX
  8
Unknown_Line_Type
  70
32
  10
2106505.88
  20
2888246.08
  30
3008
  0
SEQEND
  8
Unknown_Line_Type
  0
POLYLINE
  8
Unknown_Line_Type
  70
8
  66
1
 62
0
 39
0
  0
VERTEX
  8
Unknown_Line_Type
  70
32
  10
2106491.43
  20
2887771.52
  30
3008
  0
VERTEX
  8
Unknown_Line_Type
  70
32
  10
2106500.96
  20
2887772.49
  30
3008
  0
VERTEX
  8
Unknown_Line_Type
  70
32
  10
2106505.50
  20
2887774.47
  30
3008
  0
VERTEX
  8
Unknown_Line_Type
  70
32
  10
2106510.30
  20
2887778.25
  30
3008
  0
VERTEX
  8
Unknown_Line_Type
  70
32
  10
2106518.69
  20
2887785.93
  30
3008
  0
VERTEX
  8
Unknown_Line_Type
  70
32
  10
2106521.17
  20
2887792.64
  30
3008
  0
VERTEX
  8
Unknown_Line_Type
  70
32
  10
2106517.96
  20
2887797.82
  30
3008
  0
VERTEX
  8
Unknown_Line_Type
  70
32
  10
2106515.94
  20
2887799.92
  30
3008
  0
VERTEX
  8
Unknown_Line_Type
  70
32
  10
2106509.91
  20
2887795.51
  30
3008
  0
VERTEX
  8
Unknown_Line_Type
  70
32
  10
2106504.07
  20
2887787.82
  30
3008
  0
VERTEX
  8
Unknown_Line_Type
  70
32
  10
2106495.66
  20
2887784.23
  30
3008
  0
VERTEX
  8
Unknown_Line_Type
  70
32
  10
2106493.76
  20
2887781.23
  30
3008
  0
VERTEX
  8
Unknown_Line_Type
  70
32
  10
2106491.43
  20
2887771.52
  30
3008
  0
SEQEND
  8
Unknown_Line_Type
  0
POLYLINE
  8
Unknown_Line_Type
  70
8
  66
1
 62
0
 39
0
  0
VERTEX
  8
Unknown_Line_Type
  70
32
  10
2106503.38
  20
2887635.00
  30
3010
  0
VERTEX
  8
Unknown_Line_Type
  70
32
  10
2106500.07
  20
2887641.36
  30
3010
  0
VERTEX
  8
Unknown_Line_Type
  70
32
  10
2106497.79
  20
2887646.12
  30
3010
  0
VERTEX
  8
Unknown_Line_Type
  70
32
  10
2106497.81
  20
2887650.97
  30
3010
  0
VERTEX
  8
Unknown_Line_Type
  70
32
  10
2106508.56
  20
2887655.00
  30
3010
  0
VERTEX
  8
Unknown_Line_Type
  70
32
  10
2106514.73
  20
2887660.84
  30
3010
  0
VERTEX
  8
Unknown_Line_Type
  70
32
  10
2106519.20
  20
2887665.40
  30
3010
  0
VERTEX
  8
Unknown_Line_Type
  70
32
  10
2106520.07
  20
2887670.04
  30
3010
  0
VERTEX
  8
Unknown_Line_Type
  70
32
  10
2106524.16
  20
2887677.70
  30
3010
  0
VERTEX
  8
Unknown_Line_Type
  70
32
  10
2106528.07
  20
2887685.97
  30
3010
  0
VERTEX
  8
Unknown_Line_Type
  70
32
  10
2106524.74
  20
2887692.09
  30
3010
  0
VERTEX
  8
Unknown_Line_Type
  70
32
  10
2106522.06
  20
2887697.76
  30
3010
  0
VERTEX
  8
Unknown_Line_Type
  70
32
  10
2106521.99
  20
2887702.90
  30
3010
  0
VERTEX
  8
Unknown_Line_Type
  70
32
  10
2106522.01
  20
2887707.26
  30
3010
  0
VERTEX
  8
Unknown_Line_Type
  70
32
  10
2106527.52
  20
2887714.04
  30
3010
  0
VERTEX
  8
Unknown_Line_Type
  70
32
  10
2106527.90
  20
2887716.78
  30
3010
  0
VERTEX
  8
Unknown_Line_Type
  70
32
  10
2106531.07
  20
2887719.73
  30
3010
  0
VERTEX
  8
Unknown_Line_Type
  70
32
  10
2106537.49
  20
2887716.82
  30
3010
  0
VERTEX
  8
Unknown_Line_Type
  70
32
  10
2106538.23
  20
2887714.62
  30
3010
  0
VERTEX
  8
Unknown_Line_Type
  70
32
  10
2106545.38
  20
2887711.87
  30
3010
  0
VERTEX
  8
Unknown_Line_Type
  70
32
  10
2106550.61
  20
2887716.12
  30
3010
  0
VERTEX
  8
Unknown_Line_Type
  70
32
  10
2106551.92
  20
2887719.56
  30
3010
  0
VERTEX
  8
Unknown_Line_Type
  70
32
  10
2106553.51
  20
2887722.35
  30
3010
  0
VERTEX
  8
Unknown_Line_Type
  70
32
  10
2106554.12
  20
2887730.74
  30
3010
  0
VERTEX
  8
Unknown_Line_Type
  70
32
  10
2106552.33
  20
2887732.97
  30
3010
  0
VERTEX
  8
Unknown_Line_Type
  70
32
  10
2106549.40
  20
2887742.46
  30
3010
  0
VERTEX
  8
Unknown_Line_Type
  70
32
  10
2106550.21
  20
2887745.48
  30
3010
  0
VERTEX
  8
Unknown_Line_Type
  70
32
  10
2106554.46
  20
2887746.83
  30
3010
  0
VERTEX
  8
Unknown_Line_Type
  70
32
  10
2106561.39
  20
2887751.66
  30
3010
  0
VERTEX
  8
Unknown_Line_Type
  70
32
  10
2106555.07
  20
2887757.26
  30
3010
  0
VERTEX
  8
Unknown_Line_Type
  70
32
  10
2106558.89
  20
2887759.57
  30
3010
  0
VERTEX
  8
Unknown_Line_Type
  70
32
  10
2106569.56
  20
2887760.46
  30
3010
  0
VERTEX
  8
Unknown_Line_Type
  70
32
  10
2106571.63
  20
2887764.09
  30
3010
  0
VERTEX
  8
Unknown_Line_Type
  70
32
  10
2106571.94
  20
2887768.08
  30
3010
  0
VERTEX
  8
Unknown_Line_Type
  70
32
  10
2106571.32
  20
2887769.81
  30
3010
  0
VERTEX
  8
Unknown_Line_Type
  70
32
  10
2106573.67
  20
2887779.16
  30
3010
  0
VERTEX
  8
Unknown_Line_Type
  70
32
  10
2106575.45
  20
2887780.67
  30
3010
  0
VERTEX
  8
Unknown_Line_Type
  70
32
  10
2106579.47
  20
2887785.97
  30
3010
  0
VERTEX
  8
Unknown_Line_Type
  70
32
  10
2106590.51
  20
2887794.35
  30
3010
  0
VERTEX
  8
Unknown_Line_Type
  70
32
  10
2106594.59
  20
2887794.16
  30
3010
  0
VERTEX
  8
Unknown_Line_Type
  70
32
  10
2106598.69
  20
2887801.30
  30
3010
  0
VERTEX
  8
Unknown_Line_Type
  70
32
  10
2106600.43
  20
2887808.19
  30
3010
  0
VERTEX
  8
Unknown_Line_Type
  70
32
  10
2106605.50
  20
2887812.24
  30
3010
  0
VERTEX
  8
Unknown_Line_Type
  70
32
  10
2106611.20
  20
2887817.85
  30
3010
  0
VERTEX
  8
Unknown_Line_Type
  70
32
  10
2106616.56
  20
2887822.04
  30
3010
  0
VERTEX
  8
Unknown_Line_Type
  70
32
  10
2106616.86
  20
2887825.12
  30
3010
  0
VERTEX
  8
Unknown_Line_Type
  70
32
  10
2106625.98
  20
2887828.89
  30
3010
  0
VERTEX
  8
Unknown_Line_Type
  70
32
  10
2106630.78
  20
2887832.72
  30
3010
  0
VERTEX
  8
Unknown_Line_Type
  70
32
  10
2106631.86
  20
2887835.37
  30
3010
  0
VERTEX
  8
Unknown_Line_Type
  70
32
  10
2106634.30
  20
2887842.79
  30
3010
  0
VERTEX
  8
Unknown_Line_Type
  70
32
  10
2106639.75
  20
2887846.67
  30
3010
  0
VERTEX
  8
Unknown_Line_Type
  70
32
  10
2106643.85
  20
2887858.37
  30
3010
  0
VERTEX
  8
Unknown_Line_Type
  70
32
  10
2106645.58
  20
2887861.26
  30
3010
  0
VERTEX
  8
Unknown_Line_Type
  70
32
  10
2106653.42
  20
2887866.88
  30
3010
  0
VERTEX
  8
Unknown_Line_Type
  70
32
  10
2106653.31
  20
2887871.78
  30
3010
  0
VERTEX
  8
Unknown_Line_Type
  70
32
  10
2106660.43
  20
2887878.27
  30
3010
  0
VERTEX
  8
Unknown_Line_Type
  70
32
  10
2106661.17
  20
2887879.29
  30
3010
  0
VERTEX
  8
Unknown_Line_Type
  70
32
  10
2106670.00
  20
2887881.51
  30
3010
  0
VERTEX
  8
Unknown_Line_Type
  70
32
  10
2106676.08
  20
2887885.04
  30
3010
  0
VERTEX
  8
Unknown_Line_Type
  70
32
  10
2106676.26
  20
2887888.24
  30
3010
  0
VERTEX
  8
Unknown_Line_Type
  70
32
  10
2106679.93
  20
2887890.79
  30
3010
  0
VERTEX
  8
Unknown_Line_Type
  70
32
  10
2106680.33
  20
2887895.39
  30
3010
  0
VERTEX
  8
Unknown_Line_Type
  70
32
  10
2106680.25
  20
2887906.71
  30
3010
  0
VERTEX
  8
Unknown_Line_Type
  70
32
  10
2106680.90
  20
2887909.83
  30
3010
  0
VERTEX
  8
Unknown_Line_Type
  70
32
  10
2106682.24
  20
2887912.29
  30
3010
  0
VERTEX
  8
Unknown_Line_Type
  70
32
  10
2106684.37
  20
2887911.36
  30
3010
  0
VERTEX
  8
Unknown_Line_Type
  70
32
  10
2106686.55
  20
2887911.54
  30
3010
  0
VERTEX
  8
Unknown_Line_Type
  70
32
  10
2106692.88
  20
2887906.70
  30
3010
  0
VERTEX
  8
Unknown_Line_Type
  70
32
  10
2106697.78
  20
2887907.82
  30
3010
  0
VERTEX
  8
Unknown_Line_Type
  70
32
  10
2106702.26
  20
2887911.11
  30
3010
  0
VERTEX
  8
Unknown_Line_Type
  70
32
  10
2106705.31
  20
2887914.18
  30
3010
  0
VERTEX
  8
Unknown_Line_Type
  70
32
  10
2106714.37
  20
2887913.93
  30
3010
  0
VERTEX
  8
Unknown_Line_Type
  70
32
  10
2106718.08
  20
2887920.77
  30
3010
  0
VERTEX
  8
Unknown_Line_Type
  70
32
  10
2106723.23
  20
2887924.59
  30
3010
  0
VERTEX
  8
Unknown_Line_Type
  70
32
  10
2106726.07
  20
2887924.02
  30
3010
  0
VERTEX
  8
Unknown_Line_Type
  70
32
  10
2106730.46
  20
2887927.21
  30
3010
  0
VERTEX
  8
Unknown_Line_Type
  70
32
  10
2106734.25
  20
2887929.75
  30
3010
  0
VERTEX
  8
Unknown_Line_Type
  70
32
  10
2106740.00
  20
2887935.14
  30
3010
  0
VERTEX
  8
Unknown_Line_Type
  70
32
  10
2106742.14
  20
2887939.86
  30
3010
  0
VERTEX
  8
Unknown_Line_Type
  70
32
  10
2106746.39
  20
2887942.06
  30
3010
  0
VERTEX
  8
Unknown_Line_Type
  70
32
  10
2106748.46
  20
2887946.16
  30
3010
  0
VERTEX
  8
Unknown_Line_Type
  70
32
  10
2106750.34
  20
2887948.07
  30
3010
  0
VERTEX
  8
Unknown_Line_Type
  70
32
  10
2106754.24
  20
2887951.23
  30
3010
  0
VERTEX
  8
Unknown_Line_Type
  70
32
  10
2106763.07
  20
2887952.38
  30
3010
  0
VERTEX
  8
Unknown_Line_Type
  70
32
  10
2106766.44
  20
2887953.54
  30
3010
  0
VERTEX
  8
Unknown_Line_Type
  70
32
  10
2106768.45
  20
2887951.39
  30
3010
  0
VERTEX
  8
Unknown_Line_Type
  70
32
  10
2106776.62
  20
2887957.11
  30
3010
  0
VERTEX
  8
Unknown_Line_Type
  70
32
  10
2106785.96
  20
2887958.24
  30
3010
  0
VERTEX
  8
Unknown_Line_Type
  70
32
  10
2106792.64
  20
2887961.21
  30
3010
  0
VERTEX
  8
Unknown_Line_Type
  70
32
  10
2106797.50
  20
2887961.62
  30
3010
  0
VERTEX
  8
Unknown_Line_Type
  70
32
  10
2106800.99
  20
2887962.01
  30
3010
  0
VERTEX
  8
Unknown_Line_Type
  70
32
  10
2106803.53
  20
2887960.94
  30
3010
  0
VERTEX
  8
Unknown_Line_Type
  70
32
  10
2106811.50
  20
2887956.12
  30
3010
  0
VERTEX
  8
Unknown_Line_Type
  70
32
  10
2106818.00
  20
2887958.12
  30
3010
  0
VERTEX
  8
Unknown_Line_Type
  70
32
  10
2106823.94
  20
2887960.22
  30
3010
  0
VERTEX
  8
Unknown_Line_Type
  70
32
  10
2106829.43
  20
2887960.49
  30
3010
  0
VERTEX
  8
Unknown_Line_Type
  70
32
  10
2106836.54
  20
2887964.04
  30
3010
  0
VERTEX
  8
Unknown_Line_Type
  70
32
  10
2106844.39
  20
2887968.64
  30
3010
  0
VERTEX
  8
Unknown_Line_Type
  70
32
  10
2106847.03
  20
2887966.92
  30
3010
  0
VERTEX
  8
Unknown_Line_Type
  70
32
  10
2106850.36
  20
2887963.91
  30
3010
  0
VERTEX
  8
Unknown_Line_Type
  70
32
  10
2106857.20
  20
2887965.86
  30
3010
  0
VERTEX
  8
Unknown_Line_Type
  70
32
  10
2106865.81
  20
2887967.02
  30
3010
  0
VERTEX
  8
Unknown_Line_Type
  70
32
  10
2106868.41
  20
2887965.32
  30
3010
  0
VERTEX
  8
Unknown_Line_Type
  70
32
  10
2106877.74
  20
2887967.11
  30
3010
  0
VERTEX
  8
Unknown_Line_Type
  70
32
  10
2106880.04
  20
2887967.26
  30
3010
  0
VERTEX
  8
Unknown_Line_Type
  70
32
  10
2106883.44
  20
2887966.75
  30
3010
  0
VERTEX
  8
Unknown_Line_Type
  70
32
  10
2106888.20
  20
2887966.75
  30
3010
  0
VERTEX
  8
Unknown_Line_Type
  70
32
  10
2106893.36
  20
2887965.65
  30
3010
  0
VERTEX
  8
Unknown_Line_Type
  70
32
  10
2106900.15
  20
2887965.06
  30
3010
  0
VERTEX
  8
Unknown_Line_Type
  70
32
  10
2106908.17
  20
2887966.50
  30
3010
  0
VERTEX
  8
Unknown_Line_Type
  70
32
  10
2106912.03
  20
2887969.71
  30
3010
  0
VERTEX
  8
Unknown_Line_Type
  70
32
  10
2106918.78
  20
2887968.89
  30
3010
  0
VERTEX
  8
Unknown_Line_Type
  70
32
  10
2106925.42
  20
2887966.73
  30
3010
  0
VERTEX
  8
Unknown_Line_Type
  70
32
  10
2106928.24
  20
2887965.04
  30
3010
  0
VERTEX
  8
Unknown_Line_Type
  70
32
  10
2106938.30
  20
2887967.72
  30
3010
  0
VERTEX
  8
Unknown_Line_Type
  70
32
  10
2106945.86
  20
2887968.38
  30
3010
  0
VERTEX
  8
Unknown_Line_Type
  70
32
  10
2106948.54
  20
2887965.55
  30
3010
  0
VERTEX
  8
Unknown_Line_Type
  70
32
  10
2106957.14
  20
2887964.71
  30
3010
  0
VERTEX
  8
Unknown_Line_Type
  70
32
  10
2106968.75
  20
2887964.80
  30
3010
  0
VERTEX
  8
Unknown_Line_Type
  70
32
  10
2106970.62
  20
2887965.22
  30
3010
  0
VERTEX
  8
Unknown_Line_Type
  70
32
  10
2106975.69
  20
2887969.10
  30
3010
  0
VERTEX
  8
Unknown_Line_Type
  70
32
  10
2106978.56
  20
2887970.63
  30
3010
  0
VERTEX
  8
Unknown_Line_Type
  70
32
  10
2106981.02
  20
2887968.95
  30
3010
  0
VERTEX
  8
Unknown_Line_Type
  70
32
  10
2106983.87
  20
2887969.40
  30
3010
  0
VERTEX
  8
Unknown_Line_Type
  70
32
  10
2106983.92
  20
2887968.08
  30
3010
  0
VERTEX
  8
Unknown_Line_Type
  70
32
  10
2106984.81
  20
2887966.60
  30
3010
  0
VERTEX
  8
Unknown_Line_Type
  70
32
  10
2106991.62
  20
2887962.49
  30
3010
  0
VERTEX
  8
Unknown_Line_Type
  70
32
  10
2106994.71
  20
2887961.78
  30
3010
  0
VERTEX
  8
Unknown_Line_Type
  70
32
  10
2106999.26
  20
2887960.83
  30
3010
  0
VERTEX
  8
Unknown_Line_Type
  70
32
  10
2107005.63
  20
2887964.81
  30
3010
  0
VERTEX
  8
Unknown_Line_Type
  70
32
  10
2107006.21
  20
2887967.09
  30
3010
  0
VERTEX
  8
Unknown_Line_Type
  70
32
  10
2107012.12
  20
2887969.40
  30
3010
  0
VERTEX
  8
Unknown_Line_Type
  70
32
  10
2107017.76
  20
2887972.40
  30
3010
  0
VERTEX
  8
Unknown_Line_Type
  70
32
  10
2107020.88
  20
2887975.94
  30
3010
  0
VERTEX
  8
Unknown_Line_Type
  70
32
  10
2107027.47
  20
2887979.37
  30
3010
  0
VERTEX
  8
Unknown_Line_Type
  70
32
  10
2107030.63
  20
2887982.29
  30
3010
  0
VERTEX
  8
Unknown_Line_Type
  70
32
  10
2107035.12
  20
2887981.65
  30
3010
  0
VERTEX
  8
Unknown_Line_Type
  70
32
  10
2107045.44
  20
2887983.18
  30
3010
  0
VERTEX
  8
Unknown_Line_Type
  70
32
  10
2107045.61
  20
2887985.82
  30
3010
  0
VERTEX
  8
Unknown_Line_Type
  70
32
  10
2107051.17
  20
2887989.92
  30
3010
  0
VERTEX
  8
Unknown_Line_Type
  70
32
  10
2107055.70
  20
2887994.46
  30
3010
  0
VERTEX
  8
Unknown_Line_Type
  70
32
  10
2107060.73
  20
2887996.66
  30
3010
  0
VERTEX
  8
Unknown_Line_Type
  70
32
  10
2107062.11
  20
2887997.60
  30
3010
  0
VERTEX
  8
Unknown_Line_Type
  70
32
  10
2107064.23
  20
2887996.90
  30
3010
  0
VERTEX
  8
Unknown_Line_Type
  70
32
  10
2107069.68
  20
2887998.96
  30
3010
  0
VERTEX
  8
Unknown_Line_Type
  70
32
  10
2107076.18
  20
2888001.59
  30
3010
  0
VERTEX
  8
Unknown_Line_Type
  70
32
  10
2107080.61
  20
2888000.40
  30
3010
  0
VERTEX
  8
Unknown_Line_Type
  70
32
  10
2107083.19
  20
2888001.52
  30
3010
  0
VERTEX
  8
Unknown_Line_Type
  70
32
  10
2107087.97
  20
2888006.15
  30
3010
  0
VERTEX
  8
Unknown_Line_Type
  70
32
  10
2107091.19
  20
2888003.93
  30
3010
  0
VERTEX
  8
Unknown_Line_Type
  70
32
  10
2107094.09
  20
2888001.51
  30
3010
  0
VERTEX
  8
Unknown_Line_Type
  70
32
  10
2107096.62
  20
2888004.10
  30
3010
  0
VERTEX
  8
Unknown_Line_Type
  70
32
  10
2107100.66
  20
2888005.95
  30
3010
  0
VERTEX
  8
Unknown_Line_Type
  70
32
  10
2107107.65
  20
2888003.88
  30
3010
  0
VERTEX
  8
Unknown_Line_Type
  70
32
  10
2107108.87
  20
2888004.70
  30
3010
  0
VERTEX
  8
Unknown_Line_Type
  70
32
  10
2107110.89
  20
2888007.98
  30
3010
  0
VERTEX
  8
Unknown_Line_Type
  70
32
  10
2107111.63
  20
2888010.63
  30
3010
  0
VERTEX
  8
Unknown_Line_Type
  70
32
  10
2107114.82
  20
2888012.08
  30
3010
  0
VERTEX
  8
Unknown_Line_Type
  70
32
  10
2107119.23
  20
2888010.86
  30
3010
  0
VERTEX
  8
Unknown_Line_Type
  70
32
  10
2107125.84
  20
2888008.44
  30
3010
  0
VERTEX
  8
Unknown_Line_Type
  70
32
  10
2107128.82
  20
2888009.84
  30
3010
  0
VERTEX
  8
Unknown_Line_Type
  70
32
  10
2107133.80
  20
2888009.10
  30
3010
  0
VERTEX
  8
Unknown_Line_Type
  70
32
  10
2107139.54
  20
2888012.30
  30
3010
  0
VERTEX
  8
Unknown_Line_Type
  70
32
  10
2107144.14
  20
2888014.35
  30
3010
  0
VERTEX
  8
Unknown_Line_Type
  70
32
  10
2107146.46
  20
2888015.83
  30
3010
  0
VERTEX
  8
Unknown_Line_Type
  70
32
  10
2107154.24
  20
2888018.03
  30
3010
  0
VERTEX
  8
Unknown_Line_Type
  70
32
  10
2107156.59
  20
2888018.89
  30
3010
  0
VERTEX
  8
Unknown_Line_Type
  70
32
  10
2107158.59
  20
2888020.83
  30
3010
  0
VERTEX
  8
Unknown_Line_Type
  70
32
  10
2107160.21
  20
2888024.53
  30
3010
  0
VERTEX
  8
Unknown_Line_Type
  70
32
  10
2107166.45
  20
2888028.99
  30
3010
  0
VERTEX
  8
Unknown_Line_Type
  70
32
  10
2107173.30
  20
2888031.80
  30
3010
  0
VERTEX
  8
Unknown_Line_Type
  70
32
  10
2107178.18
  20
2888031.21
  30
3010
  0
VERTEX
  8
Unknown_Line_Type
  70
32
  10
2107182.52
  20
2888028.20
  30
3010
  0
VERTEX
  8
Unknown_Line_Type
  70
32
  10
2107187.11
  20
2888031.01
  30
3010
  0
VERTEX
  8
Unknown_Line_Type
  70
32
  10
2107188.14
  20
2888032.94
  30
3010
  0
VERTEX
  8
Unknown_Line_Type
  70
32
  10
2107194.16
  20
2888040.26
  30
3010
  0
VERTEX
  8
Unknown_Line_Type
  70
32
  10
2107198.64
  20
2888040.21
  30
3010
  0
VERTEX
  8
Unknown_Line_Type
  70
32
  10
2107202.90
  20
2888040.26
  30
3010
  0
VERTEX
  8
Unknown_Line_Type
  70
32
  10
2107206.48
  20
2888041.70
  30
3010
  0
VERTEX
  8
Unknown_Line_Type
  70
32
  10
2107211.67
  20
2888041.34
  30
3010
  0
VERTEX
  8
Unknown_Line_Type
  70
32
  10
2107219.15
  20
2888041.45
  30
3010
  0
VERTEX
  8
Unknown_Line_Type
  70
32
  10
2107219.20
  20
2888043.66
  30
3010
  0
VERTEX
  8
Unknown_Line_Type
  70
32
  10
2107220.77
  20
2888047.16
  30
3010
  0
SEQEND
  8
Unknown_Line_Type
  0
POLYLINE
  8
Unknown_Line_Type
  70
8
  66
1
 62
0
 39
0
  0
VERTEX
  8
Unknown_Line_Type
  70
32
  10
2107036.35
  20
2888200.85
  30
3010
  0
VERTEX
  8
Unknown_Line_Type
  70
32
  10
2107035.38
  20
2888201.06
  30
3010
  0
VERTEX
  8
Unknown_Line_Type
  70
32
  10
2107033.40
  20
2888201.28
  30
3010
  0
VERTEX
  8
Unknown_Line_Type
  70
32
  10
2107024.75
  20
2888198.16
  30
3010
  0
VERTEX
  8
Unknown_Line_Type
  70
32
  10
2107014.70
  20
2888201.98
  30
3010
  0
VERTEX
  8
Unknown_Line_Type
  70
32
  10
2107012.09
  20
2888199.44
  30
3010
  0
VERTEX
  8
Unknown_Line_Type
  70
32
  10
2107006.73
  20
2888202.57
  30
3010
  0
VERTEX
  8
Unknown_Line_Type
  70
32
  10
2106996.46
  20
2888200.82
  30
3010
  0
VERTEX
  8
Unknown_Line_Type
  70
32
  10
2106991.03
  20
2888197.55
  30
3010
  0
VERTEX
  8
Unknown_Line_Type
  70
32
  10
2106986.18
  20
2888190.09
  30
3010
  0
VERTEX
  8
Unknown_Line_Type
  70
32
  10
2106983.26
  20
2888185.81
  30
3010
  0
VERTEX
  8
Unknown_Line_Type
  70
32
  10
2106982.14
  20
2888184.33
  30
3010
  0
VERTEX
  8
Unknown_Line_Type
  70
32
  10
2106977.65
  20
2888182.29
  30
3010
  0
VERTEX
  8
Unknown_Line_Type
  70
32
  10
2106974.18
  20
2888181.99
  30
3010
  0
VERTEX
  8
Unknown_Line_Type
  70
32
  10
2106964.00
  20
2888184.10
  30
3010
  0
VERTEX
  8
Unknown_Line_Type
  70
32
  10
2106956.72
  20
2888184.42
  30
3010
  0
VERTEX
  8
Unknown_Line_Type
  70
32
  10
2106951.68
  20
2888181.66
  30
3010
  0
VERTEX
  8
Unknown_Line_Type
  70
32
  10
2106947.58
  20
2888177.23
  30
3010
  0
VERTEX
  8
Unknown_Line_Type
  70
32
  10
2106943.96
  20
2888174.73
  30
3010
  0
VERTEX
  8
Unknown_Line_Type
  70
32
  10
2106937.58
  20
2888180.62
  30
3010
  0
VERTEX
  8
Unknown_Line_Type
  70
32
  10
2106936.69
  20
2888181.16
  30
3010
  0
VERTEX
  8
Unknown_Line_Type
  70
32
  10
2106929.68
  20
2888180.40
  30
3010
  0
VERTEX
  8
Unknown_Line_Type
  70
32
  10
2106921.41
  20
2888176.73
  30
3010
  0
VERTEX
  8
Unknown_Line_Type
  70
32
  10
2106915.06
  20
2888184.04
  30
3010
  0
VERTEX
  8
Unknown_Line_Type
  70
32
  10
2106910.69
  20
2888186.43
  30
3010
  0
VERTEX
  8
Unknown_Line_Type
  70
32
  10
2106909.42
  20
2888187.68
  30
3010
  0
VERTEX
  8
Unknown_Line_Type
  70
32
  10
2106909.35
  20
2888189.67
  30
3010
  0
VERTEX
  8
Unknown_Line_Type
  70
32
  10
2106907.48
  20
2888191.35
  30
3010
  0
VERTEX
  8
Unknown_Line_Type
  70
32
  10
2106898.74
  20
2888192.42
  30
3010
  0
VERTEX
  8
Unknown_Line_Type
  70
32
  10
2106885.33
  20
2888191.69
  30
3010
  0
VERTEX
  8
Unknown_Line_Type
  70
32
  10
2106884.14
  20
2888194.33
  30
3010
  0
VERTEX
  8
Unknown_Line_Type
  70
32
  10
2106880.15
  20
2888194.05
  30
3010
  0
VERTEX
  8
Unknown_Line_Type
  70
32
  10
2106876.99
  20
2888198.73
  30
3010
  0
VERTEX
  8
Unknown_Line_Type
  70
32
  10
2106868.85
  20
2888207.45
  30
3010
  0
VERTEX
  8
Unknown_Line_Type
  70
32
  10
2106864.86
  20
2888208.89
  30
3010
  0
VERTEX
  8
Unknown_Line_Type
  70
32
  10
2106862.28
  20
2888214.17
  30
3010
  0
VERTEX
  8
Unknown_Line_Type
  70
32
  10
2106859.40
  20
2888223.82
  30
3010
  0
VERTEX
  8
Unknown_Line_Type
  70
32
  10
2106860.20
  20
2888227.42
  30
3010
  0
VERTEX
  8
Unknown_Line_Type
  70
32
  10
2106854.84
  20
2888231.39
  30
3010
  0
VERTEX
  8
Unknown_Line_Type
  70
32
  10
2106849.50
  20
2888235.07
  30
3010
  0
VERTEX
  8
Unknown_Line_Type
  70
32
  10
2106848.47
  20
2888242.83
  30
3010
  0
VERTEX
  8
Unknown_Line_Type
  70
32
  10
2106844.42
  20
2888250.74
  30
3010
  0
VERTEX
  8
Unknown_Line_Type
  70
32
  10
2106839.93
  20
2888251.15
  30
3010
  0
VERTEX
  8
Unknown_Line_Type
  70
32
  10
2106832.86
  20
2888246.51
  30
3010
  0
VERTEX
  8
Unknown_Line_Type
  70
32
  10
2106828.11
  20
2888244.51
  30
3010
  0
VERTEX
  8
Unknown_Line_Type
  70
32
  10
2106825.74
  20
2888246.10
  30
3010
  0
VERTEX
  8
Unknown_Line_Type
  70
32
  10
2106825.89
  20
2888246.36
  30
3010
  0
VERTEX
  8
Unknown_Line_Type
  70
32
  10
2106817.65
  20
2888254.69
  30
3010
  0
VERTEX
  8
Unknown_Line_Type
  70
32
  10
2106811.49
  20
2888257.30
  30
3010
  0
VERTEX
  8
Unknown_Line_Type
  70
32
  10
2106806.08
  20
2888259.98
  30
3010
  0
VERTEX
  8
Unknown_Line_Type
  70
32
  10
2106799.14
  20
2888260.42
  30
3010
  0
VERTEX
  8
Unknown_Line_Type
  70
32
  10
2106797.10
  20
2888258.29
  30
3010
  0
VERTEX
  8
Unknown_Line_Type
  70
32
  10
2106792.74
  20
2888257.66
  30
3010
  0
VERTEX
  8
Unknown_Line_Type
  70
32
  10
2106789.62
  20
2888262.25
  30
3010
  0
VERTEX
  8
Unknown_Line_Type
  70
32
  10
2106783.95
  20
2888262.38
  30
3010
  0
VERTEX
  8
Unknown_Line_Type
  70
32
  10
2106778.95
  20
2888265.42
  30
3010
  0
VERTEX
  8
Unknown_Line_Type
  70
32
  10
2106777.81
  20
2888266.48
  30
3010
  0
VERTEX
  8
Unknown_Line_Type
  70
32
  10
2106769.86
  20
2888269.96
  30
3010
  0
VERTEX
  8
Unknown_Line_Type
  70
32
  10
2106768.96
  20
2888274.07
  30
3010
  0
VERTEX
  8
Unknown_Line_Type
  70
32
  10
2106768.38
  20
2888274.68
  30
3010
  0
VERTEX
  8
Unknown_Line_Type
  70
32
  10
2106762.43
  20
2888276.74
  30
3010
  0
VERTEX
  8
Unknown_Line_Type
  70
32
  10
2106755.51
  20
2888285.79
  30
3010
  0
VERTEX
  8
Unknown_Line_Type
  70
32
  10
2106749.82
  20
2888290.87
  30
3010
  0
VERTEX
  8
Unknown_Line_Type
  70
32
  10
2106747.33
  20
2888290.49
  30
3010
  0
VERTEX
  8
Unknown_Line_Type
  70
32
  10
2106742.20
  20
2888292.30
  30
3010
  0
VERTEX
  8
Unknown_Line_Type
  70
32
  10
2106738.96
  20
2888288.80
  30
3010
  0
VERTEX
  8
Unknown_Line_Type
  70
32
  10
2106733.74
  20
2888285.90
  30
3010
  0
VERTEX
  8
Unknown_Line_Type
  70
32
  10
2106723.80
  20
2888285.89
  30
3010
  0
VERTEX
  8
Unknown_Line_Type
  70
32
  10
2106715.87
  20
2888279.85
  30
3010
  0
VERTEX
  8
Unknown_Line_Type
  70
32
  10
2106714.19
  20
2888279.90
  30
3010
  0
VERTEX
  8
Unknown_Line_Type
  70
32
  10
2106711.30
  20
2888278.09
  30
3010
  0
VERTEX
  8
Unknown_Line_Type
  70
32
  10
2106701.63
  20
2888284.67
  30
3010
  0
VERTEX
  8
Unknown_Line_Type
  70
32
  10
2106699.82
  20
2888287.48
  30
3010
  0
VERTEX
  8
Unknown_Line_Type
  70
32
  10
2106695.82
  20
2888287.03
  30
3010
  0
VERTEX
  8
Unknown_Line_Type
  70
32
  10
2106695.27
  20
2888286.15
  30
3010
  0
VERTEX
  8
Unknown_Line_Type
  70
32
  10
2106693.17
  20
2888285.19
  30
3010
  0
VERTEX
  8
Unknown_Line_Type
  70
32
  10
2106689.27
  20
2888276.53
  30
3010
  0
VERTEX
  8
Unknown_Line_Type
  70
32
  10
2106679.82
  20
2888279.34
  30
3010
  0
VERTEX
  8
Unknown_Line_Type
  70
32
  10
2106677.94
  20
2888280.11
  30
3010
  0
VERTEX
  8
Unknown_Line_Type
  70
32
  10
2106671.94
  20
2888281.51
  30
3010
  0
VERTEX
  8
Unknown_Line_Type
  70
32
  10
2106665.35
  20
2888279.47
  30
3010
  0
VERTEX
  8
Unknown_Line_Type
  70
32
  10
2106656.75
  20
2888278.14
  30
3010
  0
VERTEX
  8
Unknown_Line_Type
  70
32
  10
2106649.97
  20
2888280.52
  30
3010
  0
VERTEX
  8
Unknown_Line_Type
  70
32
  10
2106649.49
  20
2888281.25
  30
3010
  0
VERTEX
  8
Unknown_Line_Type
  70
32
  10
2106640.76
  20
2888280.18
  30
3010
  0
VERTEX
  8
Unknown_Line_Type
  70
32
  10
2106635.37
  20
2888278.20
  30
3010
  0
VERTEX
  8
Unknown_Line_Type
  70
32
  10
2106631.14
  20
2888270.42
  30
3010
  0
VERTEX
  8
Unknown_Line_Type
  70
32
  10
2106622.27
  20
2888269.63
  30
3010
  0
VERTEX
  8
Unknown_Line_Type
  70
32
  10
2106613.91
  20
2888270.00
  30
3010
  0
VERTEX
  8
Unknown_Line_Type
  70
32
  10
2106610.17
  20
2888268.48
  30
3010
  0
VERTEX
  8
Unknown_Line_Type
  70
32
  10
2106603.53
  20
2888265.41
  30
3010
  0
VERTEX
  8
Unknown_Line_Type
  70
32
  10
2106601.91
  20
2888271.21
  30
3010
  0
VERTEX
  8
Unknown_Line_Type
  70
32
  10
2106592.27
  20
2888267.96
  30
3010
  0
VERTEX
  8
Unknown_Line_Type
  70
32
  10
2106589.34
  20
2888267.35
  30
3010
  0
VERTEX
  8
Unknown_Line_Type
  70
32
  10
2106584.90
  20
2888265.95
  30
3010
  0
VERTEX
  8
Unknown_Line_Type
  70
32
  10
2106577.78
  20
2888260.92
  30
3010
  0
VERTEX
  8
Unknown_Line_Type
  70
32
  10
2106574.22
  20
2888265.94
  30
3010
  0
VERTEX
  8
Unknown_Line_Type
  70
32
  10
2106568.46
  20
2888266.27
  30
3010
  0
VERTEX
  8
Unknown_Line_Type
  70
32
  10
2106565.15
  20
2888267.20
  30
3010
  0
VERTEX
  8
Unknown_Line_Type
  70
32
  10
2106562.91
  20
2888264.42
  30
3010
  0
VERTEX
  8
Unknown_Line_Type
  70
32
  10
2106557.15
  20
2888260.36
  30
3010
  0
VERTEX
  8
Unknown_Line_Type
  70
32
  10
2106550.01
  20
2888260.86
  30
3010
  0
VERTEX
  8
Unknown_Line_Type
  70
32
  10
2106544.00
  20
2888263.16
  30
3010
  0
VERTEX
  8
Unknown_Line_Type
  70
32
  10
2106539.85
  20
2888263.71
  30
3010
  0
VERTEX
  8
Unknown_Line_Type
  70
32
  10
2106531.30
  20
2888256.65
  30
3010
  0
VERTEX
  8
Unknown_Line_Type
  70
32
  10
2106529.20
  20
2888260.99
  30
3010
  0
SEQEND
  8
Unknown_Line_Type
  0
POLYLINE
  8
Unknown_Line_Type
  70
8
  66
1
 62
0
 39
0
  0
VERTEX
  8
Unknown_Line_Type
  70
32
  10
2106559.98
  20
2888280.68
  30
3012
  0
VERTEX
  8
Unknown_Line_Type
  70
32
  10
2106561.79
  20
2888280.48
  30
3012
  0
VERTEX
  8
Unknown_Line_Type
  70
32
  10
2106566.68
  20
2888278.63
  30
3012
  0
VERTEX
  8
Unknown_Line_Type
  70
32
  10
2106571.38
  20
2888279.20
  30
3012
  0
VERTEX
  8
Unknown_Line_Type
  70
32
  10
2106576.53
  20
2888281.48
  30
3012
  0
VERTEX
  8
Unknown_Line_Type
  70
32
  10
2106579.93
  20
2888284.95
  30
3012
  0
VERTEX
  8
Unknown_Line_Type
  70
32
  10
2106581.10
  20
2888286.96
  30
3012
  0
VERTEX
  8
Unknown_Line_Type
  70
32
  10
2106583.45
  20
2888289.15
  30
3012
  0
VERTEX
  8
Unknown_Line_Type
  70
32
  10
2106587.82
  20
2888289.71
  30
3012
  0
VERTEX
  8
Unknown_Line_Type
  70
32
  10
2106591.99
  20
2888290.63
  30
3012
  0
VERTEX
  8
Unknown_Line_Type
  70
32
  10
2106601.25
  20
2888293.12
  30
3012
  0
VERTEX
  8
Unknown_Line_Type
  70
32
  10
2106602.86
  20
2888293.29
  30
3012
  0
VERTEX
  8
Unknown_Line_Type
  70
32
  10
2106606.56
  20
2888297.73
  30
3012
  0
VERTEX
  8
Unknown_Line_Type
  70
32
  10
2106614.56
  20
2888298.67
  30
3012
  0
VERTEX
  8
Unknown_Line_Type
  70
32
  10
2106619.88
  20
2888298.16
  30
3012
  0
VERTEX
  8
Unknown_Line_Type
  70
32
  10
2106622.21
  20
2888301.22
  30
3012
  0
VERTEX
  8
Unknown_Line_Type
  70
32
  10
2106631.20
  20
2888304.94
  30
3012
  0
VERTEX
  8
Unknown_Line_Type
  70
32
  10
2106632.28
  20
2888302.73
  30
3012
  0
VERTEX
  8
Unknown_Line_Type
  70
32
  10
2106639.46
  20
2888301.99
  30
3012
  0
VERTEX
  8
Unknown_Line_Type
  70
32
  10
2106642.11
  20
2888302.19
  30
3012
  0
VERTEX
  8
Unknown_Line_Type
  70
32
  10
2106650.37
  20
2888301.94
  30
3012
  0
VERTEX
  8
Unknown_Line_Type
  70
32
  10
2106655.10
  20
2888306.28
  30
3012
  0
VERTEX
  8
Unknown_Line_Type
  70
32
  10
2106662.32
  20
2888309.20
  30
3012
  0
VERTEX
  8
Unknown_Line_Type
  70
32
  10
2106670.74
  20
2888307.93
  30
3012
  0
VERTEX
  8
Unknown_Line_Type
  70
32
  10
2106671.98
  20
2888309.01
  30
3012
  0
VERTEX
  8
Unknown_Line_Type
  70
32
  10
2106679.51
  20
2888311.12
  30
3012
  0
VERTEX
  8
Unknown_Line_Type
  70
32
  10
2106681.55
  20
2888312.58
  30
3012
  0
VERTEX
  8
Unknown_Line_Type
  70
32
  10
2106684.87
  20
2888312.66
  30
3012
  0
VERTEX
  8
Unknown_Line_Type
  70
32
  10
2106691.55
  20
2888312.08
  30
3012
  0
VERTEX
  8
Unknown_Line_Type
  70
32
  10
2106699.24
  20
2888310.19
  30
3012
  0
VERTEX
  8
Unknown_Line_Type
  70
32
  10
2106701.37
  20
2888306.83
  30
3012
  0
VERTEX
  8
Unknown_Line_Type
  70
32
  10
2106707.22
  20
2888305.57
  30
3012
  0
VERTEX
  8
Unknown_Line_Type
  70
32
  10
2106712.17
  20
2888305.08
  30
3012
  0
VERTEX
  8
Unknown_Line_Type
  70
32
  10
2106713.01
  20
2888304.61
  30
3012
  0
VERTEX
  8
Unknown_Line_Type
  70
32
  10
2106715.46
  20
2888301.04
  30
3012
  0
VERTEX
  8
Unknown_Line_Type
  70
32
  10
2106723.11
  20
2888302.09
  30
3012
  0
VERTEX
  8
Unknown_Line_Type
  70
32
  10
2106725.72
  20
2888303.50
  30
3012
  0
VERTEX
  8
Unknown_Line_Type
  70
32
  10
2106730.33
  20
2888307.89
  30
3012
  0
VERTEX
  8
Unknown_Line_Type
  70
32
  10
2106735.97
  20
2888314.94
  30
3012
  0
VERTEX
  8
Unknown_Line_Type
  70
32
  10
2106738.89
  20
2888315.89
  30
3012
  0
VERTEX
  8
Unknown_Line_Type
  70
32
  10
2106741.33
  20
2888320.53
  30
3012
  0
VERTEX
  8
Unknown_Line_Type
  70
32
  10
2106744.40
  20
2888324.53
  30
3012
  0
VERTEX
  8
Unknown_Line_Type
  70
32
  10
2106757.79
  20
2888326.84
  30
3012
  0
VERTEX
  8
Unknown_Line_Type
  70
32
  10
2106760.80
  20
2888329.80
  30
3012
  0
VERTEX
  8
Unknown_Line_Type
  70
32
  10
2106767.50
  20
2888327.58
  30
3012
  0
VERTEX
  8
Unknown_Line_Type
  70
32
  10
2106779.32
  20
2888324.54
  30
3012
  0
VERTEX
  8
Unknown_Line_Type
  70
32
  10
2106782.59
  20
2888327.28
  30
3012
  0
VERTEX
  8
Unknown_Line_Type
  70
32
  10
2106791.32
  20
2888314.34
  30
3012
  0
VERTEX
  8
Unknown_Line_Type
  70
32
  10
2106794.57
  20
2888309.65
  30
3012
  0
VERTEX
  8
Unknown_Line_Type
  70
32
  10
2106795.27
  20
2888303.34
  30
3012
  0
VERTEX
  8
Unknown_Line_Type
  70
32
  10
2106798.95
  20
2888301.07
  30
3012
  0
VERTEX
  8
Unknown_Line_Type
  70
32
  10
2106802.26
  20
2888296.97
  30
3012
  0
VERTEX
  8
Unknown_Line_Type
  70
32
  10
2106807.60
  20
2888294.84
  30
3012
  0
VERTEX
  8
Unknown_Line_Type
  70
32
  10
2106821.14
  20
2888294.79
  30
3012
  0
VERTEX
  8
Unknown_Line_Type
  70
32
  10
2106823.99
  20
2888296.83
  30
3012
  0
VERTEX
  8
Unknown_Line_Type
  70
32
  10
2106827.94
  20
2888290.96
  30
3012
  0
VERTEX
  8
Unknown_Line_Type
  70
32
  10
2106828.51
  20
2888289.87
  30
3012
  0
VERTEX
  8
Unknown_Line_Type
  70
32
  10
2106837.89
  20
2888279.60
  30
3012
  0
VERTEX
  8
Unknown_Line_Type
  70
32
  10
2106845.07
  20
2888273.21
  30
3012
  0
VERTEX
  8
Unknown_Line_Type
  70
32
  10
2106853.50
  20
2888267.48
  30
3012
  0
VERTEX
  8
Unknown_Line_Type
  70
32
  10
2106854.01
  20
2888267.03
  30
3012
  0
VERTEX
  8
Unknown_Line_Type
  70
32
  10
2106857.60
  20
2888265.56
  30
3012
  0
VERTEX
  8
Unknown_Line_Type
  70
32
  10
2106867.56
  20
2888265.60
  30
3012
  0
VERTEX
  8
Unknown_Line_Type
  70
32
  10
2106872.59
  20
2888257.07
  30
3012
  0
VERTEX
  8
Unknown_Line_Type
  70
32
  10
2106881.15
  20
2888266.92
  30
3012
  0
VERTEX
  8
Unknown_Line_Type
  70
32
  10
2106888.44
  20
2888265.61
  30
3012
  0
VERTEX
  8
Unknown_Line_Type
  70
32
  10
2106896.24
  20
2888263.05
  30
3012
  0
VERTEX
  8
Unknown_Line_Type
  70
32
  10
2106897.24
  20
2888262.00
  30
3012
  0
VERTEX
  8
Unknown_Line_Type
  70
32
  10
2106897.00
  20
2888256.81
  30
3012
  0
VERTEX
  8
Unknown_Line_Type
  70
32
  10
2106899.74
  20
2888249.44
  30
3012
  0
VERTEX
  8
Unknown_Line_Type
  70
32
  10
2106903.65
  20
2888240.25
  30
3012
  0
VERTEX
  8
Unknown_Line_Type
  70
32
  10
2106913.42
  20
2888241.23
  30
3012
  0
VERTEX
  8
Unknown_Line_Type
  70
32
  10
2106920.22
  20
2888236.87
  30
3012
  0
VERTEX
  8
Unknown_Line_Type
  70
32
  10
2106924.80
  20
2888240.65
  30
3012
  0
VERTEX
  8
Unknown_Line_Type
  70
32
  10
2106929.01
  20
2888232.94
  30
3012
  0
VERTEX
  8
Unknown_Line_Type
  70
32
  10
2106931.17
  20
2888234.04
  30
3012
  0
VERTEX
  8
Unknown_Line_Type
  70
32
  10
2106936.59
  20
2888223.26
  30
3012
  0
VERTEX
  8
Unknown_Line_Type
  70
32
  10
2106939.61
  20
2888220.93
  30
3012
  0
VERTEX
  8
Unknown_Line_Type
  70
32
  10
2106952.56
  20
2888224.24
  30
3012
  0
VERTEX
  8
Unknown_Line_Type
  70
32
  10
2106956.60
  20
2888222.33
  30
3012
  0
VERTEX
  8
Unknown_Line_Type
  70
32
  10
2106960.66
  20
2888223.86
  30
3012
  0
VERTEX
  8
Unknown_Line_Type
  70
32
  10
2106969.20
  20
2888224.32
  30
3012
  0
VERTEX
  8
Unknown_Line_Type
  70
32
  10
2106979.16
  20
2888224.87
  30
3012
  0
VERTEX
  8
Unknown_Line_Type
  70
32
  10
2106979.52
  20
2888230.05
  30
3012
  0
VERTEX
  8
Unknown_Line_Type
  70
32
  10
2106980.97
  20
2888232.65
  30
3012
  0
VERTEX
  8
Unknown_Line_Type
  70
32
  10
2106989.25
  20
2888235.28
  30
3012
  0
VERTEX
  8
Unknown_Line_Type
  70
32
  10
2106991.64
  20
2888238.10
  30
3012
  0
SEQEND
  8
Unknown_Line_Type
  0
POLYLINE
  8
Unknown_Line_Type
  70
8
  66
1
 62
0
 39
0
  0
VERTEX
  8
Unknown_Line_Type
  70
32
  10
2107243.68
  20
2888028.07
  30
3012
  0
VERTEX
  8
Unknown_Line_Type
  70
32
  10
2107241.24
  20
2888028.55
  30
3012
  0
VERTEX
  8
Unknown_Line_Type
  70
32
  10
2107234.20
  20
2888030.02
  30
3012
  0
VERTEX
  8
Unknown_Line_Type
  70
32
  10
2107231.79
  20
2888030.47
  30
3012
  0
VERTEX
  8
Unknown_Line_Type
  70
32
  10
2107229.10
  20
2888028.67
  30
3012
  0
VERTEX
  8
Unknown_Line_Type
  70
32
  10
2107222.81
  20
2888027.09
  30
3012
  0
VERTEX
  8
Unknown_Line_Type
  70
32
  10
2107216.66
  20
2888026.75
  30
3012
  0
VERTEX
  8
Unknown_Line_Type
  70
32
  10
2107208.94
  20
2888023.46
  30
3012
  0
VERTEX
  8
Unknown_Line_Type
  70
32
  10
2107204.45
  20
2888024.38
  30
3012
  0
VERTEX
  8
Unknown_Line_Type
  70
32
  10
2107199.01
  20
2888024.46
  30
3012
  0
VERTEX
  8
Unknown_Line_Type
  70
32
  10
2107196.56
  20
2888020.51
  30
3012
  0
VERTEX
  8
Unknown_Line_Type
  70
32
  10
2107189.85
  20
2888017.19
  30
3012
  0
VERTEX
  8
Unknown_Line_Type
  70
32
  10
2107183.78
  20
2888013.40
  30
3012
  0
VERTEX
  8
Unknown_Line_Type
  70
32
  10
2107182.18
  20
2888012.91
  30
3012
  0
VERTEX
  8
Unknown_Line_Type
  70
32
  10
2107177.22
  20
2888009.62
  30
3012
  0
VERTEX
  8
Unknown_Line_Type
  70
32
  10
2107170.17
  20
2888007.37
  30
3012
  0
VERTEX
  8
Unknown_Line_Type
  70
32
  10
2107166.38
  20
2888008.39
  30
3012
  0
VERTEX
  8
Unknown_Line_Type
  70
32
  10
2107160.99
  20
2888006.42
  30
3012
  0
VERTEX
  8
Unknown_Line_Type
  70
32
  10
2107156.26
  20
2888003.94
  30
3012
  0
VERTEX
  8
Unknown_Line_Type
  70
32
  10
2107151.67
  20
2888001.43
  30
3012
  0
VERTEX
  8
Unknown_Line_Type
  70
32
  10
2107148.18
  20
2888000.81
  30
3012
  0
VERTEX
  8
Unknown_Line_Type
  70
32
  10
2107142.90
  20
2887998.93
  30
3012
  0
VERTEX
  8
Unknown_Line_Type
  70
32
  10
2107139.72
  20
2887997.07
  30
3012
  0
VERTEX
  8
Unknown_Line_Type
  70
32
  10
2107132.25
  20
2887994.66
  30
3012
  0
VERTEX
  8
Unknown_Line_Type
  70
32
  10
2107129.52
  20
2887994.32
  30
3012
  0
VERTEX
  8
Unknown_Line_Type
  70
32
  10
2107128.58
  20
2887996.72
  30
3012
  0
VERTEX
  8
Unknown_Line_Type
  70
32
  10
2107122.51
  20
2887996.24
  30
3012
  0
VERTEX
  8
Unknown_Line_Type
  70
32
  10
2107121.26
  20
2887993.89
  30
3012
  0
VERTEX
  8
Unknown_Line_Type
  70
32
  10
2107117.79
  20
2887991.45
  30
3012
  0
VERTEX
  8
Unknown_Line_Type
  70
32
  10
2107111.75
  20
2887991.16
  30
3012
  0
VERTEX
  8
Unknown_Line_Type
  70
32
  10
2107101.68
  20
2887990.65
  30
3012
  0
VERTEX
  8
Unknown_Line_Type
  70
32
  10
2107097.07
  20
2887992.31
  30
3012
  0
VERTEX
  8
Unknown_Line_Type
  70
32
  10
2107094.64
  20
2887989.81
  30
3012
  0
VERTEX
  8
Unknown_Line_Type
  70
32
  10
2107087.55
  20
2887993.08
  30
3012
  0
VERTEX
  8
Unknown_Line_Type
  70
32
  10
2107085.36
  20
2887994.90
  30
3012
  0
VERTEX
  8
Unknown_Line_Type
  70
32
  10
2107082.88
  20
2887993.86
  30
3012
  0
VERTEX
  8
Unknown_Line_Type
  70
32
  10
2107079.32
  20
2887989.85
  30
3012
  0
VERTEX
  8
Unknown_Line_Type
  70
32
  10
2107073.03
  20
2887987.26
  30
3012
  0
VERTEX
  8
Unknown_Line_Type
  70
32
  10
2107071.55
  20
2887983.11
  30
3012
  0
VERTEX
  8
Unknown_Line_Type
  70
32
  10
2107062.68
  20
2887981.13
  30
3012
  0
VERTEX
  8
Unknown_Line_Type
  70
32
  10
2107061.51
  20
2887982.97
  30
3012
  0
VERTEX
  8
Unknown_Line_Type
  70
32
  10
2107059.86
  20
2887981.30
  30
3012
  0
VERTEX
  8
Unknown_Line_Type
  70
32
  10
2107055.52
  20
2887976.94
  30
3012
  0
VERTEX
  8
Unknown_Line_Type
  70
32
  10
2107055.38
  20
2887974.63
  30
3012
  0
VERTEX
  8
Unknown_Line_Type
  70
32
  10
2107054.93
  20
2887969.35
  30
3012
  0
VERTEX
  8
Unknown_Line_Type
  70
32
  10
2107047.42
  20
2887966.27
  30
3012
  0
VERTEX
  8
Unknown_Line_Type
  70
32
  10
2107039.34
  20
2887962.46
  30
3012
  0
VERTEX
  8
Unknown_Line_Type
  70
32
  10
2107033.56
  20
2887961.77
  30
3012
  0
VERTEX
  8
Unknown_Line_Type
  70
32
  10
2107031.98
  20
2887960.97
  30
3012
  0
VERTEX
  8
Unknown_Line_Type
  70
32
  10
2107027.88
  20
2887962.27
  30
3012
  0
VERTEX
  8
Unknown_Line_Type
  70
32
  10
2107027.25
  20
2887960.19
  30
3012
  0
VERTEX
  8
Unknown_Line_Type
  70
32
  10
2107024.17
  20
2887955.95
  30
3012
  0
VERTEX
  8
Unknown_Line_Type
  70
32
  10
2107021.95
  20
2887948.78
  30
3012
  0
VERTEX
  8
Unknown_Line_Type
  70
32
  10
2107012.76
  20
2887947.20
  30
3012
  0
VERTEX
  8
Unknown_Line_Type
  70
32
  10
2107004.69
  20
2887945.09
  30
3012
  0
VERTEX
  8
Unknown_Line_Type
  70
32
  10
2106997.61
  20
2887941.47
  30
3012
  0
VERTEX
  8
Unknown_Line_Type
  70
32
  10
2106994.54
  20
2887941.86
  30
3012
  0
VERTEX
  8
Unknown_Line_Type
  70
32
  10
2106984.47
  20
2887945.84
  30
3012
  0
VERTEX
  8
Unknown_Line_Type
  70
32
  10
2106981.10
  20
2887945.47
  30
3012
  0
VERTEX
  8
Unknown_Line_Type
  70
32
  10
2106976.26
  20
2887946.30
  30
3012
  0
VERTEX
  8
Unknown_Line_Type
  70
32
  10
2106965.80
  20
2887947.81
  30
3012
  0
VERTEX
  8
Unknown_Line_Type
  70
32
  10
2106955.58
  20
2887947.74
  30
3012
  0
VERTEX
  8
Unknown_Line_Type
  70
32
  10
2106945.78
  20
2887949.42
  30
3012
  0
VERTEX
  8
Unknown_Line_Type
  70
32
  10
2106935.52
  20
2887949.83
  30
3012
  0
VERTEX
  8
Unknown_Line_Type
  70
32
  10
2106928.12
  20
2887945.93
  30
3012
  0
VERTEX
  8
Unknown_Line_Type
  70
32
  10
2106924.98
  20
2887947.94
  30
3012
  0
VERTEX
  8
Unknown_Line_Type
  70
32
  10
2106923.97
  20
2887950.31
  30
3012
  0
VERTEX
  8
Unknown_Line_Type
  70
32
  10
2106919.63
  20
2887950.26
  30
3012
  0
VERTEX
  8
Unknown_Line_Type
  70
32
  10
2106907.89
  20
2887952.25
  30
3012
  0
VERTEX
  8
Unknown_Line_Type
  70
32
  10
2106905.64
  20
2887953.93
  30
3012
  0
VERTEX
  8
Unknown_Line_Type
  70
32
  10
2106899.02
  20
2887952.69
  30
3012
  0
VERTEX
  8
Unknown_Line_Type
  70
32
  10
2106894.51
  20
2887949.74
  30
3012
  0
VERTEX
  8
Unknown_Line_Type
  70
32
  10
2106887.79
  20
2887949.47
  30
3012
  0
VERTEX
  8
Unknown_Line_Type
  70
32
  10
2106880.74
  20
2887948.45
  30
3012
  0
VERTEX
  8
Unknown_Line_Type
  70
32
  10
2106879.20
  20
2887952.40
  30
3012
  0
VERTEX
  8
Unknown_Line_Type
  70
32
  10
2106876.15
  20
2887954.64
  30
3012
  0
VERTEX
  8
Unknown_Line_Type
  70
32
  10
2106871.49
  20
2887953.99
  30
3012
  0
VERTEX
  8
Unknown_Line_Type
  70
32
  10
2106863.91
  20
2887952.53
  30
3012
  0
VERTEX
  8
Unknown_Line_Type
  70
32
  10
2106862.01
  20
2887951.50
  30
3012
  0
VERTEX
  8
Unknown_Line_Type
  70
32
  10
2106859.63
  20
2887947.54
  30
3012
  0
VERTEX
  8
Unknown_Line_Type
  70
32
  10
2106851.25
  20
2887948.21
  30
3012
  0
VERTEX
  8
Unknown_Line_Type
  70
32
  10
2106846.26
  20
2887949.76
  30
3012
  0
VERTEX
  8
Unknown_Line_Type
  70
32
  10
2106839.60
  20
2887945.40
  30
3012
  0
VERTEX
  8
Unknown_Line_Type
  70
32
  10
2106833.31
  20
2887943.15
  30
3012
  0
VERTEX
  8
Unknown_Line_Type
  70
32
  10
2106828.98
  20
2887942.53
  30
3012
  0
VERTEX
  8
Unknown_Line_Type
  70
32
  10
2106823.31
  20
2887938.47
  30
3012
  0
VERTEX
  8
Unknown_Line_Type
  70
32
  10
2106814.95
  20
2887941.76
  30
3012
  0
VERTEX
  8
Unknown_Line_Type
  70
32
  10
2106811.72
  20
2887942.71
  30
3012
  0
VERTEX
  8
Unknown_Line_Type
  70
32
  10
2106802.01
  20
2887942.09
  30
3012
  0
VERTEX
  8
Unknown_Line_Type
  70
32
  10
2106792.53
  20
2887940.13
  30
3012
  0
VERTEX
  8
Unknown_Line_Type
  70
32
  10
2106789.85
  20
2887942.01
  30
3012
  0
VERTEX
  8
Unknown_Line_Type
  70
32
  10
2106784.97
  20
2887940.76
  30
3012
  0
VERTEX
  8
Unknown_Line_Type
  70
32
  10
2106779.77
  20
2887935.91
  30
3012
  0
VERTEX
  8
Unknown_Line_Type
  70
32
  10
2106776.15
  20
2887933.68
  30
3012
  0
VERTEX
  8
Unknown_Line_Type
  70
32
  10
2106773.91
  20
2887934.08
  30
3012
  0
VERTEX
  8
Unknown_Line_Type
  70
32
  10
2106765.41
  20
2887929.95
  30
3012
  0
VERTEX
  8
Unknown_Line_Type
  70
32
  10
2106757.49
  20
2887926.23
  30
3012
  0
VERTEX
  8
Unknown_Line_Type
  70
32
  10
2106752.71
  20
2887924.28
  30
3012
  0
VERTEX
  8
Unknown_Line_Type
  70
32
  10
2106751.78
  20
2887923.11
  30
3012
  0
VERTEX
  8
Unknown_Line_Type
  70
32
  10
2106748.15
  20
2887920.14
  30
3012
  0
VERTEX
  8
Unknown_Line_Type
  70
32
  10
2106745.80
  20
2887917.66
  30
3012
  0
VERTEX
  8
Unknown_Line_Type
  70
32
  10
2106743.18
  20
2887916.37
  30
3012
  0
VERTEX
  8
Unknown_Line_Type
  70
32
  10
2106741.39
  20
2887912.22
  30
3012
  0
VERTEX
  8
Unknown_Line_Type
  70
32
  10
2106736.62
  20
2887908.74
  30
3012
  0
VERTEX
  8
Unknown_Line_Type
  70
32
  10
2106732.97
  20
2887908.97
  30
3012
  0
VERTEX
  8
Unknown_Line_Type
  70
32
  10
2106728.42
  20
2887899.07
  30
3012
  0
VERTEX
  8
Unknown_Line_Type
  70
32
  10
2106730.35
  20
2887896.21
  30
3012
  0
VERTEX
  8
Unknown_Line_Type
  70
32
  10
2106725.52
  20
2887891.96
  30
3012
  0
VERTEX
  8
Unknown_Line_Type
  70
32
  10
2106722.03
  20
2887889.91
  30
3012
  0
VERTEX
  8
Unknown_Line_Type
  70
32
  10
2106720.60
  20
2887888.80
  30
3012
  0
VERTEX
  8
Unknown_Line_Type
  70
32
  10
2106714.50
  20
2887888.04
  30
3012
  0
VERTEX
  8
Unknown_Line_Type
  70
32
  10
2106712.59
  20
2887880.19
  30
3012
  0
VERTEX
  8
Unknown_Line_Type
  70
32
  10
2106711.81
  20
2887877.31
  30
3012
  0
VERTEX
  8
Unknown_Line_Type
  70
32
  10
2106709.53
  20
2887873.51
  30
3012
  0
VERTEX
  8
Unknown_Line_Type
  70
32
  10
2106705.19
  20
2887870.97
  30
3012
  0
VERTEX
  8
Unknown_Line_Type
  70
32
  10
2106691.06
  20
2887863.02
  30
3012
  0
VERTEX
  8
Unknown_Line_Type
  70
32
  10
2106687.94
  20
2887860.14
  30
3012
  0
VERTEX
  8
Unknown_Line_Type
  70
32
  10
2106677.90
  20
2887858.05
  30
3012
  0
VERTEX
  8
Unknown_Line_Type
  70
32
  10
2106672.82
  20
2887857.68
  30
3012
  0
VERTEX
  8
Unknown_Line_Type
  70
32
  10
2106672.76
  20
2887856.63
  30
3012
  0
VERTEX
  8
Unknown_Line_Type
  70
32
  10
2106672.51
  20
2887854.90
  30
3012
  0
VERTEX
  8
Unknown_Line_Type
  70
32
  10
2106671.98
  20
2887849.33
  30
3012
  0
VERTEX
  8
Unknown_Line_Type
  70
32
  10
2106670.84
  20
2887839.16
  30
3012
  0
VERTEX
  8
Unknown_Line_Type
  70
32
  10
2106669.93
  20
2887836.80
  30
3012
  0
VERTEX
  8
Unknown_Line_Type
  70
32
  10
2106668.05
  20
2887832.11
  30
3012
  0
VERTEX
  8
Unknown_Line_Type
  70
32
  10
2106666.25
  20
2887828.15
  30
3012
  0
VERTEX
  8
Unknown_Line_Type
  70
32
  10
2106665.82
  20
2887826.58
  30
3012
  0
VERTEX
  8
Unknown_Line_Type
  70
32
  10
2106659.69
  20
2887818.19
  30
3012
  0
VERTEX
  8
Unknown_Line_Type
  70
32
  10
2106660.74
  20
2887804.67
  30
3012
  0
VERTEX
  8
Unknown_Line_Type
  70
32
  10
2106661.12
  20
2887799.76
  30
3012
  0
VERTEX
  8
Unknown_Line_Type
  70
32
  10
2106657.02
  20
2887794.50
  30
3012
  0
VERTEX
  8
Unknown_Line_Type
  70
32
  10
2106651.66
  20
2887790.21
  30
3012
  0
VERTEX
  8
Unknown_Line_Type
  70
32
  10
2106653.29
  20
2887784.93
  30
3012
  0
VERTEX
  8
Unknown_Line_Type
  70
32
  10
2106654.03
  20
2887781.09
  30
3012
  0
VERTEX
  8
Unknown_Line_Type
  70
32
  10
2106648.64
  20
2887778.50
  30
3012
  0
VERTEX
  8
Unknown_Line_Type
  70
32
  10
2106646.65
  20
2887780.21
  30
3012
  0
VERTEX
  8
Unknown_Line_Type
  70
32
  10
2106645.12
  20
2887783.13
  30
3012
  0
VERTEX
  8
Unknown_Line_Type
  70
32
  10
2106639.15
  20
2887778.94
  30
3012
  0
VERTEX
  8
Unknown_Line_Type
  70
32
  10
2106641.73
  20
2887775.99
  30
3012
  0
VERTEX
  8
Unknown_Line_Type
  70
32
  10
2106641.40
  20
2887772.99
  30
3012
  0
VERTEX
  8
Unknown_Line_Type
  70
32
  10
2106638.55
  20
2887766.77
  30
3012
  0
VERTEX
  8
Unknown_Line_Type
  70
32
  10
2106630.83
  20
2887766.05
  30
3012
  0
VERTEX
  8
Unknown_Line_Type
  70
32
  10
2106621.69
  20
2887765.80
  30
3012
  0
VERTEX
  8
Unknown_Line_Type
  70
32
  10
2106619.14
  20
2887763.21
  30
3012
  0
VERTEX
  8
Unknown_Line_Type
  70
32
  10
2106613.66
  20
2887758.32
  30
3012
  0
VERTEX
  8
Unknown_Line_Type
  70
32
  10
2106602.79
  20
2887745.75
  30
3012
  0
VERTEX
  8
Unknown_Line_Type
  70
32
  10
2106599.04
  20
2887739.01
  30
3012
  0
VERTEX
  8
Unknown_Line_Type
  70
32
  10
2106598.11
  20
2887738.41
  30
3012
  0
VERTEX
  8
Unknown_Line_Type
  70
32
  10
2106593.13
  20
2887736.01
  30
3012
  0
VERTEX
  8
Unknown_Line_Type
  70
32
  10
2106595.41
  20
2887733.16
  30
3012
  0
VERTEX
  8
Unknown_Line_Type
  70
32
  10
2106588.43
  20
2887724.40
  30
3012
  0
VERTEX
  8
Unknown_Line_Type
  70
32
  10
2106583.18
  20
2887715.90
  30
3012
  0
VERTEX
  8
Unknown_Line_Type
  70
32
  10
2106582.07
  20
2887711.77
  30
3012
  0
VERTEX
  8
Unknown_Line_Type
  70
32
  10
2106578.20
  20
2887709.32
  30
3012
  0
VERTEX
  8
Unknown_Line_Type
  70
32
  10
2106576.27
  20
2887706.19
  30
3012
  0
VERTEX
  8
Unknown_Line_Type
  70
32
  10
2106570.09
  20
2887702.52
  30
3012
  0
VERTEX
  8
Unknown_Line_Type
  70
32
  10
2106570.30
  20
2887696.22
  30
3012
  0
VERTEX
  8
Unknown_Line_Type
  70
32
  10
2106572.76
  20
2887693.66
  30
3012
  0
VERTEX
  8
Unknown_Line_Type
  70
32
  10
2106575.27
  20
2887690.10
  30
3012
  0
VERTEX
  8
Unknown_Line_Type
  70
32
  10
2106572.97
  20
2887684.64
  30
3012
  0
VERTEX
  8
Unknown_Line_Type
  70
32
  10
2106568.17
  20
2887688.81
  30
3012
  0
VERTEX
  8
Unknown_Line_Type
  70
32
  10
2106564.13
  20
2887688.83
  30
3012
  0
VERTEX
  8
Unknown_Line_Type
  70
32
  10
2106564.57
  20
2887684.04
  30
3012
  0
VERTEX
  8
Unknown_Line_Type
  70
32
  10
2106569.91
  20
2887675.35
  30
3012
  0
VERTEX
  8
Unknown_Line_Type
  70
32
  10
2106570.41
  20
2887668.96
  30
3012
  0
VERTEX
  8
Unknown_Line_Type
  70
32
  10
2106571.23
  20
2887667.97
  30
3012
  0
VERTEX
  8
Unknown_Line_Type
  70
32
  10
2106570.80
  20
2887657.05
  30
3012
  0
VERTEX
  8
Unknown_Line_Type
  70
32
  10
2106568.30
  20
2887649.23
  30
3012
  0
VERTEX
  8
Unknown_Line_Type
  70
32
  10
2106568.20
  20
2887639.96
  30
3012
  0
VERTEX
  8
Unknown_Line_Type
  70
32
  10
2106565.71
  20
2887637.57
  30
3012
  0
VERTEX
  8
Unknown_Line_Type
  70
32
  10
2106555.39
  20
2887635.00
  30
3012
  0
SEQEND
  8
Unknown_Line_Type
  0
POLYLINE
  8
Unknown_Line_Type
  70
8
  66
1
 62
0
 39
0
  0
VERTEX
  8
Unknown_Line_Type
  70
32
  10
2106605.84
  20
2887635.00
  30
3014
  0
VERTEX
  8
Unknown_Line_Type
  70
32
  10
2106603.76
  20
2887637.54
  30
3014
  0
VERTEX
  8
Unknown_Line_Type
  70
32
  10
2106604.55
  20
2887641.89
  30
3014
  0
VERTEX
  8
Unknown_Line_Type
  70
32
  10
2106604.69
  20
2887644.35
  30
3014
  0
VERTEX
  8
Unknown_Line_Type
  70
32
  10
2106606.76
  20
2887650.01
  30
3014
  0
VERTEX
  8
Unknown_Line_Type
  70
32
  10
2106605.61
  20
2887660.82
  30
3014
  0
VERTEX
  8
Unknown_Line_Type
  70
32
  10
2106606.47
  20
2887668.86
  30
3014
  0
VERTEX
  8
Unknown_Line_Type
  70
32
  10
2106611.60
  20
2887675.29
  30
3014
  0
VERTEX
  8
Unknown_Line_Type
  70
32
  10
2106614.51
  20
2887675.15
  30
3014
  0
VERTEX
  8
Unknown_Line_Type
  70
32
  10
2106616.65
  20
2887679.16
  30
3014
  0
VERTEX
  8
Unknown_Line_Type
  70
32
  10
2106623.00
  20
2887681.77
  30
3014
  0
VERTEX
  8
Unknown_Line_Type
  70
32
  10
2106627.63
  20
2887690.81
  30
3014
  0
VERTEX
  8
Unknown_Line_Type
  70
32
  10
2106628.13
  20
2887692.88
  30
3014
  0
VERTEX
  8
Unknown_Line_Type
  70
32
  10
2106631.20
  20
2887697.64
  30
3014
  0
VERTEX
  8
Unknown_Line_Type
  70
32
  10
2106634.15
  20
2887702.84
  30
3014
  0
VERTEX
  8
Unknown_Line_Type
  70
32
  10
2106639.02
  20
2887699.96
  30
3014
  0
VERTEX
  8
Unknown_Line_Type
  70
32
  10
2106641.65
  20
2887696.66
  30
3014
  0
VERTEX
  8
Unknown_Line_Type
  70
32
  10
2106645.03
  20
2887695.52
  30
3014
  0
VERTEX
  8
Unknown_Line_Type
  70
32
  10
2106644.25
  20
2887698.87
  30
3014
  0
VERTEX
  8
Unknown_Line_Type
  70
32
  10
2106644.40
  20
2887700.61
  30
3014
  0
VERTEX
  8
Unknown_Line_Type
  70
32
  10
2106652.01
  20
2887712.10
  30
3014
  0
VERTEX
  8
Unknown_Line_Type
  70
32
  10
2106655.76
  20
2887711.94
  30
3014
  0
VERTEX
  8
Unknown_Line_Type
  70
32
  10
2106661.49
  20
2887719.58
  30
3014
  0
VERTEX
  8
Unknown_Line_Type
  70
32
  10
2106661.71
  20
2887724.37
  30
3014
  0
VERTEX
  8
Unknown_Line_Type
  70
32
  10
2106661.73
  20
2887727.90
  30
3014
  0
VERTEX
  8
Unknown_Line_Type
  70
32
  10
2106662.36
  20
2887741.01
  30
3014
  0
VERTEX
  8
Unknown_Line_Type
  70
32
  10
2106675.30
  20
2887738.98
  30
3014
  0
VERTEX
  8
Unknown_Line_Type
  70
32
  10
2106678.39
  20
2887749.48
  30
3014
  0
VERTEX
  8
Unknown_Line_Type
  70
32
  10
2106684.05
  20
2887756.53
  30
3014
  0
VERTEX
  8
Unknown_Line_Type
  70
32
  10
2106690.91
  20
2887758.60
  30
3014
  0
VERTEX
  8
Unknown_Line_Type
  70
32
  10
2106696.70
  20
2887756.86
  30
3014
  0
VERTEX
  8
Unknown_Line_Type
  70
32
  10
2106695.31
  20
2887765.79
  30
3014
  0
VERTEX
  8
Unknown_Line_Type
  70
32
  10
2106695.90
  20
2887769.97
  30
3014
  0
VERTEX
  8
Unknown_Line_Type
  70
32
  10
2106698.31
  20
2887777.44
  30
3014
  0
VERTEX
  8
Unknown_Line_Type
  70
32
  10
2106700.51
  20
2887784.82
  30
3014
  0
VERTEX
  8
Unknown_Line_Type
  70
32
  10
2106705.57
  20
2887797.21
  30
3014
  0
VERTEX
  8
Unknown_Line_Type
  70
32
  10
2106702.71
  20
2887803.33
  30
3014
  0
VERTEX
  8
Unknown_Line_Type
  70
32
  10
2106702.42
  20
2887816.10
  30
3014
  0
VERTEX
  8
Unknown_Line_Type
  70
32
  10
2106707.98
  20
2887826.78
  30
3014
  0
VERTEX
  8
Unknown_Line_Type
  70
32
  10
2106712.91
  20
2887828.81
  30
3014
  0
VERTEX
  8
Unknown_Line_Type
  70
32
  10
2106708.27
  20
2887833.77
  30
3014
  0
VERTEX
  8
Unknown_Line_Type
  70
32
  10
2106706.93
  20
2887840.65
  30
3014
  0
VERTEX
  8
Unknown_Line_Type
  70
32
  10
2106713.75
  20
2887848.30
  30
3014
  0
VERTEX
  8
Unknown_Line_Type
  70
32
  10
2106715.99
  20
2887853.12
  30
3014
  0
VERTEX
  8
Unknown_Line_Type
  70
32
  10
2106717.78
  20
2887858.74
  30
3014
  0
VERTEX
  8
Unknown_Line_Type
  70
32
  10
2106723.01
  20
2887858.35
  30
3014
  0
VERTEX
  8
Unknown_Line_Type
  70
32
  10
2106731.15
  20
2887861.13
  30
3014
  0
VERTEX
  8
Unknown_Line_Type
  70
32
  10
2106735.40
  20
2887868.69
  30
3014
  0
VERTEX
  8
Unknown_Line_Type
  70
32
  10
2106736.44
  20
2887876.42
  30
3014
  0
VERTEX
  8
Unknown_Line_Type
  70
32
  10
2106739.11
  20
2887880.31
  30
3014
  0
VERTEX
  8
Unknown_Line_Type
  70
32
  10
2106737.81
  20
2887886.99
  30
3014
  0
VERTEX
  8
Unknown_Line_Type
  70
32
  10
2106743.52
  20
2887892.04
  30
3014
  0
VERTEX
  8
Unknown_Line_Type
  70
32
  10
2106746.36
  20
2887895.30
  30
3014
  0
VERTEX
  8
Unknown_Line_Type
  70
32
  10
2106749.00
  20
2887898.58
  30
3014
  0
VERTEX
  8
Unknown_Line_Type
  70
32
  10
2106753.45
  20
2887899.91
  30
3014
  0
VERTEX
  8
Unknown_Line_Type
  70
32
  10
2106757.68
  20
2887900.80
  30
3014
  0
VERTEX
  8
Unknown_Line_Type
  70
32
  10
2106759.00
  20
2887902.23
  30
3014
  0
VERTEX
  8
Unknown_Line_Type
  70
32
  10
2106761.45
  20
2887903.46
  30
3014
  0
VERTEX
  8
Unknown_Line_Type
  70
32
  10
2106767.86
  20
2887908.59
  30
3014
  0
VERTEX
  8
Unknown_Line_Type
  70
32
  10
2106772.56
  20
2887912.04
  30
3014
  0
VERTEX
  8
Unknown_Line_Type
  70
32
  10
2106781.03
  20
2887916.74
  30
3014
  0
VERTEX
  8
Unknown_Line_Type
  70
32
  10
2106785.07
  20
2887916.57
  30
3014
  0
VERTEX
  8
Unknown_Line_Type
  70
32
  10
2106792.31
  20
2887920.04
  30
3014
  0
VERTEX
  8
Unknown_Line_Type
  70
32
  10
2106802.84
  20
2887922.38
  30
3014
  0
VERTEX
  8
Unknown_Line_Type
  70
32
  10
2106808.16
  20
2887922.64
  30
3014
  0
VERTEX
  8
Unknown_Line_Type
  70
32
  10
2106810.48
  20
2887922.64
  30
3014
  0
VERTEX
  8
Unknown_Line_Type
  70
32
  10
2106819.73
  20
2887923.48
  30
3014
  0
VERTEX
  8
Unknown_Line_Type
  70
32
  10
2106823.73
  20
2887923.58
  30
3014
  0
VERTEX
  8
Unknown_Line_Type
  70
32
  10
2106825.02
  20
2887923.58
  30
3014
  0
VERTEX
  8
Unknown_Line_Type
  70
32
  10
2106827.20
  20
2887921.21
  30
3014
  0
VERTEX
  8
Unknown_Line_Type
  70
32
  10
2106832.64
  20
2887922.92
  30
3014
  0
VERTEX
  8
Unknown_Line_Type
  70
32
  10
2106833.97
  20
2887922.10
  30
3014
  0
VERTEX
  8
Unknown_Line_Type
  70
32
  10
2106843.56
  20
2887922.54
  30
3014
  0
VERTEX
  8
Unknown_Line_Type
  70
32
  10
2106853.55
  20
2887919.73
  30
3014
  0
VERTEX
  8
Unknown_Line_Type
  70
32
  10
2106856.03
  20
2887919.17
  30
3014
  0
VERTEX
  8
Unknown_Line_Type
  70
32
  10
2106859.81
  20
2887921.05
  30
3014
  0
VERTEX
  8
Unknown_Line_Type
  70
32
  10
2106863.81
  20
2887923.45
  30
3014
  0
VERTEX
  8
Unknown_Line_Type
  70
32
  10
2106870.38
  20
2887925.56
  30
3014
  0
VERTEX
  8
Unknown_Line_Type
  70
32
  10
2106876.06
  20
2887922.82
  30
3014
  0
VERTEX
  8
Unknown_Line_Type
  70
32
  10
2106882.21
  20
2887927.83
  30
3014
  0
VERTEX
  8
Unknown_Line_Type
  70
32
  10
2106885.04
  20
2887930.23
  30
3014
  0
VERTEX
  8
Unknown_Line_Type
  70
32
  10
2106889.43
  20
2887929.33
  30
3014
  0
VERTEX
  8
Unknown_Line_Type
  70
32
  10
2106893.97
  20
2887931.34
  30
3014
  0
VERTEX
  8
Unknown_Line_Type
  70
32
  10
2106898.01
  20
2887931.50
  30
3014
  0
VERTEX
  8
Unknown_Line_Type
  70
32
  10
2106902.55
  20
2887928.17
  30
3014
  0
VERTEX
  8
Unknown_Line_Type
  70
32
  10
2106907.93
  20
2887920.44
  30
3014
  0
VERTEX
  8
Unknown_Line_Type
  70
32
  10
2106913.71
  20
2887925.44
  30
3014
  0
VERTEX
  8
Unknown_Line_Type
  70
32
  10
2106922.38
  20
2887925.25
  30
3014
  0
VERTEX
  8
Unknown_Line_Type
  70
32
  10
2106925.93
  20
2887924.22
  30
3014
  0
VERTEX
  8
Unknown_Line_Type
  70
32
  10
2106931.62
  20
2887926.70
  30
3014
  0
VERTEX
  8
Unknown_Line_Type
  70
32
  10
2106933.45
  20
2887927.99
  30
3014
  0
VERTEX
  8
Unknown_Line_Type
  70
32
  10
2106935.20
  20
2887929.71
  30
3014
  0
VERTEX
  8
Unknown_Line_Type
  70
32
  10
2106941.35
  20
2887932.81
  30
3014
  0
VERTEX
  8
Unknown_Line_Type
  70
32
  10
2106947.81
  20
2887928.54
  30
3014
  0
VERTEX
  8
Unknown_Line_Type
  70
32
  10
2106948.23
  20
2887927.51
  30
3014
  0
VERTEX
  8
Unknown_Line_Type
  70
32
  10
2106961.27
  20
2887923.10
  30
3014
  0
VERTEX
  8
Unknown_Line_Type
  70
32
  10
2106968.31
  20
2887923.25
  30
3014
  0
VERTEX
  8
Unknown_Line_Type
  70
32
  10
2106971.22
  20
2887920.74
  30
3014
  0
VERTEX
  8
Unknown_Line_Type
  70
32
  10
2106978.60
  20
2887918.25
  30
3014
  0
VERTEX
  8
Unknown_Line_Type
  70
32
  10
2106981.55
  20
2887917.32
  30
3014
  0
VERTEX
  8
Unknown_Line_Type
  70
32
  10
2106983.82
  20
2887918.56
  30
3014
  0
VERTEX
  8
Unknown_Line_Type
  70
32
  10
2106991.58
  20
2887918.36
  30
3014
  0
VERTEX
  8
Unknown_Line_Type
  70
32
  10
2106999.25
  20
2887915.64
  30
3014
  0
VERTEX
  8
Unknown_Line_Type
  70
32
  10
2107005.83
  20
2887923.03
  30
3014
  0
VERTEX
  8
Unknown_Line_Type
  70
32
  10
2107009.56
  20
2887925.00
  30
3014
  0
VERTEX
  8
Unknown_Line_Type
  70
32
  10
2107012.24
  20
2887924.58
  30
3014
  0
VERTEX
  8
Unknown_Line_Type
  70
32
  10
2107023.95
  20
2887921.06
  30
3014
  0
VERTEX
  8
Unknown_Line_Type
  70
32
  10
2107025.45
  20
2887920.84
  30
3014
  0
VERTEX
  8
Unknown_Line_Type
  70
32
  10
2107029.46
  20
2887922.65
  30
3014
  0
VERTEX
  8
Unknown_Line_Type
  70
32
  10
2107041.03
  20
2887921.86
  30
3014
  0
VERTEX
  8
Unknown_Line_Type
  70
32
  10
2107040.13
  20
2887927.04
  30
3014
  0
VERTEX
  8
Unknown_Line_Type
  70
32
  10
2107038.45
  20
2887933.34
  30
3014
  0
VERTEX
  8
Unknown_Line_Type
  70
32
  10
2107036.20
  20
2887937.77
  30
3014
  0
VERTEX
  8
Unknown_Line_Type
  70
32
  10
2107042.85
  20
2887938.75
  30
3014
  0
VERTEX
  8
Unknown_Line_Type
  70
32
  10
2107046.03
  20
2887938.30
  30
3014
  0
VERTEX
  8
Unknown_Line_Type
  70
32
  10
2107048.38
  20
2887941.05
  30
3014
  0
VERTEX
  8
Unknown_Line_Type
  70
32
  10
2107053.01
  20
2887949.40
  30
3014
  0
VERTEX
  8
Unknown_Line_Type
  70
32
  10
2107059.83
  20
2887952.16
  30
3014
  0
VERTEX
  8
Unknown_Line_Type
  70
32
  10
2107061.39
  20
2887952.42
  30
3014
  0
VERTEX
  8
Unknown_Line_Type
  70
32
  10
2107070.94
  20
2887956.47
  30
3014
  0
VERTEX
  8
Unknown_Line_Type
  70
32
  10
2107076.18
  20
2887958.55
  30
3014
  0
VERTEX
  8
Unknown_Line_Type
  70
32
  10
2107078.59
  20
2887963.19
  30
3014
  0
VERTEX
  8
Unknown_Line_Type
  70
32
  10
2107084.01
  20
2887967.53
  30
3014
  0
VERTEX
  8
Unknown_Line_Type
  70
32
  10
2107090.12
  20
2887968.44
  30
3014
  0
VERTEX
  8
Unknown_Line_Type
  70
32
  10
2107093.44
  20
2887969.14
  30
3014
  0
VERTEX
  8
Unknown_Line_Type
  70
32
  10
2107099.80
  20
2887967.49
  30
3014
  0
VERTEX
  8
Unknown_Line_Type
  70
32
  10
2107106.33
  20
2887969.00
  30
3014
  0
VERTEX
  8
Unknown_Line_Type
  70
32
  10
2107112.17
  20
2887972.91
  30
3014
  0
VERTEX
  8
Unknown_Line_Type
  70
32
  10
2107119.46
  20
2887973.31
  30
3014
  0
VERTEX
  8
Unknown_Line_Type
  70
32
  10
2107125.93
  20
2887975.89
  30
3014
  0
VERTEX
  8
Unknown_Line_Type
  70
32
  10
2107131.91
  20
2887974.19
  30
3014
  0
VERTEX
  8
Unknown_Line_Type
  70
32
  10
2107134.18
  20
2887974.26
  30
3014
  0
VERTEX
  8
Unknown_Line_Type
  70
32
  10
2107146.57
  20
2887980.69
  30
3014
  0
VERTEX
  8
Unknown_Line_Type
  70
32
  10
2107146.50
  20
2887981.79
  30
3014
  0
VERTEX
  8
Unknown_Line_Type
  70
32
  10
2107152.40
  20
2887987.53
  30
3014
  0
VERTEX
  8
Unknown_Line_Type
  70
32
  10
2107157.60
  20
2887988.70
  30
3014
  0
VERTEX
  8
Unknown_Line_Type
  70
32
  10
2107162.72
  20
2887988.00
  30
3014
  0
VERTEX
  8
Unknown_Line_Type
  70
32
  10
2107170.07
  20
2887992.10
  30
3014
  0
VERTEX
  8
Unknown_Line_Type
  70
32
  10
2107170.77
  20
2887993.50
  30
3014
  0
VERTEX
  8
Unknown_Line_Type
  70
32
  10
2107174.82
  20
2887993.82
  30
3014
  0
VERTEX
  8
Unknown_Line_Type
  70
32
  10
2107180.48
  20
2887993.68
  30
3014
  0
VERTEX
  8
Unknown_Line_Type
  70
32
  10
2107182.44
  20
2887993.12
  30
3014
  0
VERTEX
  8
Unknown_Line_Type
  70
32
  10
2107185.93
  20
2887989.82
  30
3014
  0
VERTEX
  8
Unknown_Line_Type
  70
32
  10
2107190.61
  20
2887990.60
  30
3014
  0
VERTEX
  8
Unknown_Line_Type
  70
32
  10
2107195.64
  20
2887992.78
  30
3014
  0
VERTEX
  8
Unknown_Line_Type
  70
32
  10
2107195.78
  20
2887999.07
  30
3014
  0
VERTEX
  8
Unknown_Line_Type
  70
32
  10
2107195.80
  20
2888000.30
  30
3014
  0
VERTEX
  8
Unknown_Line_Type
  70
32
  10
2107195.63
  20
2888003.43
  30
3014
  0
VERTEX
  8
Unknown_Line_Type
  70
32
  10
2107200.93
  20
2888006.54
  30
3014
  0
VERTEX
  8
Unknown_Line_Type
  70
32
  10
2107204.89
  20
2888004.47
  30
3014
  0
VERTEX
  8
Unknown_Line_Type
  70
32
  10
2107212.59
  20
2888001.80
  30
3014
  0
VERTEX
  8
Unknown_Line_Type
  70
32
  10
2107218.20
  20
2888003.91
  30
3014
  0
VERTEX
  8
Unknown_Line_Type
  70
32
  10
2107219.49
  20
2887994.96
  30
3014
  0
VERTEX
  8
Unknown_Line_Type
  70
32
  10
2107221.97
  20
2887993.05
  30
3014
  0
VERTEX
  8
Unknown_Line_Type
  70
32
  10
2107225.05
  20
2887993.03
  30
3014
  0
VERTEX
  8
Unknown_Line_Type
  70
32
  10
2107229.45
  20
2887994.11
  30
3014
  0
VERTEX
  8
Unknown_Line_Type
  70
32
  10
2107235.82
  20
2887997.90
  30
3014
  0
VERTEX
  8
Unknown_Line_Type
  70
32
  10
2107242.48
  20
2887999.71
  30
3014
  0
VERTEX
  8
Unknown_Line_Type
  70
32
  10
2107246.16
  20
2888003.01
  30
3014
  0
VERTEX
  8
Unknown_Line_Type
  70
32
  10
2107251.19
  20
2888003.50
  30
3014
  0
VERTEX
  8
Unknown_Line_Type
  70
32
  10
2107261.56
  20
2888004.18
  30
3014
  0
VERTEX
  8
Unknown_Line_Type
  70
32
  10
2107270.17
  20
2888006.00
  30
3014
  0
SEQEND
  8
Unknown_Line_Type
  0
POLYLINE
  8
Unknown_Line_Type
  70
8
  66
1
 62
0
 39
0
  0
VERTEX
  8
Unknown_Line_Type
  70
32
  10
2106684.62
  20
2888360.39
  30
3014
  0
VERTEX
  8
Unknown_Line_Type
  70
32
  10
2106685.85
  20
2888359.83
  30
3014
  0
VERTEX
  8
Unknown_Line_Type
  70
32
  10
2106688.05
  20
2888357.36
  30
3014
  0
VERTEX
  8
Unknown_Line_Type
  70
32
  10
2106692.73
  20
2888358.62
  30
3014
  0
VERTEX
  8
Unknown_Line_Type
  70
32
  10
2106695.52
  20
2888359.62
  30
3014
  0
VERTEX
  8
Unknown_Line_Type
  70
32
  10
2106701.35
  20
2888361.18
  30
3014
  0
VERTEX
  8
Unknown_Line_Type
  70
32
  10
2106708.23
  20
2888362.66
  30
3014
  0
VERTEX
  8
Unknown_Line_Type
  70
32
  10
2106710.10
  20
2888363.17
  30
3014
  0
VERTEX
  8
Unknown_Line_Type
  70
32
  10
2106712.28
  20
2888361.85
  30
3014
  0
VERTEX
  8
Unknown_Line_Type
  70
32
  10
2106719.96
  20
2888362.01
  30
3014
  0
VERTEX
  8
Unknown_Line_Type
  70
32
  10
2106724.56
  20
2888356.90
  30
3014
  0
VERTEX
  8
Unknown_Line_Type
  70
32
  10
2106726.75
  20
2888352.95
  30
3014
  0
VERTEX
  8
Unknown_Line_Type
  70
32
  10
2106731.84
  20
2888351.30
  30
3014
  0
VERTEX
  8
Unknown_Line_Type
  70
32
  10
2106734.21
  20
2888353.59
  30
3014
  0
VERTEX
  8
Unknown_Line_Type
  70
32
  10
2106744.23
  20
2888364.94
  30
3014
  0
VERTEX
  8
Unknown_Line_Type
  70
32
  10
2106752.06
  20
2888364.49
  30
3014
  0
VERTEX
  8
Unknown_Line_Type
  70
32
  10
2106750.18
  20
2888369.94
  30
3014
  0
VERTEX
  8
Unknown_Line_Type
  70
32
  10
2106748.43
  20
2888375.24
  30
3014
  0
VERTEX
  8
Unknown_Line_Type
  70
32
  10
2106742.43
  20
2888380.14
  30
3014
  0
VERTEX
  8
Unknown_Line_Type
  70
32
  10
2106739.52
  20
2888383.37
  30
3014
  0
VERTEX
  8
Unknown_Line_Type
  70
32
  10
2106739.00
  20
2888385.62
  30
3014
  0
VERTEX
  8
Unknown_Line_Type
  70
32
  10
2106740.52
  20
2888396.14
  30
3014
  0
SEQEND
  8
Unknown_Line_Type
  0
POLYLINE
  8
Unknown_Line_Type
  70
8
  66
1
 62
0
 39
0
  0
VERTEX
  8
Unknown_Line_Type
  70
32
  10
2106754.65
  20
2888405.18
  30
3014
  0
VERTEX
  8
Unknown_Line_Type
  70
32
  10
2106760.36
  20
2888397.64
  30
3014
  0
VERTEX
  8
Unknown_Line_Type
  70
32
  10
2106771.60
  20
2888401.74
  30
3014
  0
VERTEX
  8
Unknown_Line_Type
  70
32
  10
2106780.51
  20
2888392.66
  30
3014
  0
VERTEX
  8
Unknown_Line_Type
  70
32
  10
2106784.03
  20
2888389.24
  30
3014
  0
VERTEX
  8
Unknown_Line_Type
  70
32
  10
2106787.31
  20
2888392.83
  30
3014
  0
VERTEX
  8
Unknown_Line_Type
  70
32
  10
2106788.71
  20
2888397.21
  30
3014
  0
VERTEX
  8
Unknown_Line_Type
  70
32
  10
2106797.20
  20
2888400.13
  30
3014
  0
SEQEND
  8
Unknown_Line_Type
  0
POLYLINE
  8
Unknown_Line_Type
  70
8
  66
1
 62
0
 39
0
  0
VERTEX
  8
Unknown_Line_Type
  70
32
  10
2106810.91
  20
2888388.72
  30
3014
  0
VERTEX
  8
Unknown_Line_Type
  70
32
  10
2106812.17
  20
2888385.41
  30
3014
  0
VERTEX
  8
Unknown_Line_Type
  70
32
  10
2106814.94
  20
2888368.23
  30
3014
  0
VERTEX
  8
Unknown_Line_Type
  70
32
  10
2106819.69
  20
2888363.30
  30
3014
  0
VERTEX
  8
Unknown_Line_Type
  70
32
  10
2106819.98
  20
2888356.77
  30
3014
  0
VERTEX
  8
Unknown_Line_Type
  70
32
  10
2106826.29
  20
2888354.25
  30
3014
  0
VERTEX
  8
Unknown_Line_Type
  70
32
  10
2106824.32
  20
2888349.02
  30
3014
  0
VERTEX
  8
Unknown_Line_Type
  70
32
  10
2106839.44
  20
2888346.13
  30
3014
  0
VERTEX
  8
Unknown_Line_Type
  70
32
  10
2106850.58
  20
2888349.98
  30
3014
  0
VERTEX
  8
Unknown_Line_Type
  70
32
  10
2106857.40
  20
2888349.97
  30
3014
  0
SEQEND
  8
Unknown_Line_Type
  0
POLYLINE
  8
Unknown_Line_Type
  70
8
  66
1
 62
0
 39
0
  0
VERTEX
  8
Unknown_Line_Type
  70
32
  10
2106876.31
  20
2888334.21
  30
3014
  0
VERTEX
  8
Unknown_Line_Type
  70
32
  10
2106879.38
  20
2888331.28
  30
3014
  0
VERTEX
  8
Unknown_Line_Type
  70
32
  10
2106879.98
  20
2888331.15
  30
3014
  0
SEQEND
  8
Unknown_Line_Type
  0
POLYLINE
  8
Unknown_Line_Type
  70
8
  66
1
 62
0
 39
0
  0
VERTEX
  8
Unknown_Line_Type
  70
32
  10
2106881.22
  20
2888330.12
  30
3014
  0
VERTEX
  8
Unknown_Line_Type
  70
32
  10
2106886.58
  20
2888316.50
  30
3014
  0
VERTEX
  8
Unknown_Line_Type
  70
32
  10
2106892.32
  20
2888313.47
  30
3014
  0
VERTEX
  8
Unknown_Line_Type
  70
32
  10
2106900.00
  20
2888314.47
  30
3014
  0
SEQEND
  8
Unknown_Line_Type
  0
POLYLINE
  8
Unknown_Line_Type
  70
8
  66
1
 62
0
 39
0
  0
VERTEX
  8
Unknown_Line_Type
  70
32
  10
2106923.20
  20
2888295.14
  30
3014
  0
VERTEX
  8
Unknown_Line_Type
  70
32
  10
2106926.33
  20
2888290.92
  30
3014
  0
VERTEX
  8
Unknown_Line_Type
  70
32
  10
2106926.38
  20
2888290.27
  30
3014
  0
VERTEX
  8
Unknown_Line_Type
  70
32
  10
2106929.87
  20
2888289.51
  30
3014
  0
VERTEX
  8
Unknown_Line_Type
  70
32
  10
2106930.01
  20
2888289.46
  30
3014
  0
SEQEND
  8
Unknown_Line_Type
  0
POLYLINE
  8
Unknown_Line_Type
  70
8
  66
1
 62
0
 39
0
  0
VERTEX
  8
Unknown_Line_Type
  70
32
  10
2107314.51
  20
2887969.04
  30
3016
  0
VERTEX
  8
Unknown_Line_Type
  70
32
  10
2107313.95
  20
2887969.03
  30
3016
  0
VERTEX
  8
Unknown_Line_Type
  70
32
  10
2107311.49
  20
2887969.60
  30
3016
  0
VERTEX
  8
Unknown_Line_Type
  70
32
  10
2107309.19
  20
2887973.48
  30
3016
  0
SEQEND
  8
Unknown_Line_Type
  0
POLYLINE
  8
Unknown_Line_Type
  70
8
  66
1
 62
0
 39
0
  0
VERTEX
  8
Unknown_Line_Type
  70
32
  10
2107308.85
  20
2887973.76
  30
3016
  0
VERTEX
  8
Unknown_Line_Type
  70
32
  10
2107300.07
  20
2887973.99
  30
3016
  0
VERTEX
  8
Unknown_Line_Type
  70
32
  10
2107294.95
  20
2887975.92
  30
3016
  0
VERTEX
  8
Unknown_Line_Type
  70
32
  10
2107292.67
  20
2887978.02
  30
3016
  0
VERTEX
  8
Unknown_Line_Type
  70
32
  10
2107291.67
  20
2887981.59
  30
3016
  0
VERTEX
  8
Unknown_Line_Type
  70
32
  10
2107286.08
  20
2887978.89
  30
3016
  0
VERTEX
  8
Unknown_Line_Type
  70
32
  10
2107278.45
  20
2887975.09
  30
3016
  0
VERTEX
  8
Unknown_Line_Type
  70
32
  10
2107272.13
  20
2887974.31
  30
3016
  0
VERTEX
  8
Unknown_Line_Type
  70
32
  10
2107268.08
  20
2887976.63
  30
3016
  0
VERTEX
  8
Unknown_Line_Type
  70
32
  10
2107261.32
  20
2887976.34
  30
3016
  0
VERTEX
  8
Unknown_Line_Type
  70
32
  10
2107256.60
  20
2887972.58
  30
3016
  0
VERTEX
  8
Unknown_Line_Type
  70
32
  10
2107251.22
  20
2887973.30
  30
3016
  0
VERTEX
  8
Unknown_Line_Type
  70
32
  10
2107241.14
  20
2887972.39
  30
3016
  0
VERTEX
  8
Unknown_Line_Type
  70
32
  10
2107236.95
  20
2887973.85
  30
3016
  0
VERTEX
  8
Unknown_Line_Type
  70
32
  10
2107231.52
  20
2887970.18
  30
3016
  0
VERTEX
  8
Unknown_Line_Type
  70
32
  10
2107226.09
  20
2887962.00
  30
3016
  0
VERTEX
  8
Unknown_Line_Type
  70
32
  10
2107219.96
  20
2887966.45
  30
3016
  0
VERTEX
  8
Unknown_Line_Type
  70
32
  10
2107216.38
  20
2887966.06
  30
3016
  0
VERTEX
  8
Unknown_Line_Type
  70
32
  10
2107210.95
  20
2887969.07
  30
3016
  0
VERTEX
  8
Unknown_Line_Type
  70
32
  10
2107210.60
  20
2887969.48
  30
3016
  0
VERTEX
  8
Unknown_Line_Type
  70
32
  10
2107203.05
  20
2887974.15
  30
3016
  0
VERTEX
  8
Unknown_Line_Type
  70
32
  10
2107196.50
  20
2887971.87
  30
3016
  0
VERTEX
  8
Unknown_Line_Type
  70
32
  10
2107187.68
  20
2887975.78
  30
3016
  0
VERTEX
  8
Unknown_Line_Type
  70
32
  10
2107184.48
  20
2887975.25
  30
3016
  0
VERTEX
  8
Unknown_Line_Type
  70
32
  10
2107184.26
  20
2887975.12
  30
3016
  0
VERTEX
  8
Unknown_Line_Type
  70
32
  10
2107183.97
  20
2887973.88
  30
3016
  0
VERTEX
  8
Unknown_Line_Type
  70
32
  10
2107174.30
  20
2887970.31
  30
3016
  0
VERTEX
  8
Unknown_Line_Type
  70
32
  10
2107169.64
  20
2887970.12
  30
3016
  0
VERTEX
  8
Unknown_Line_Type
  70
32
  10
2107167.41
  20
2887967.22
  30
3016
  0
VERTEX
  8
Unknown_Line_Type
  70
32
  10
2107159.99
  20
2887962.54
  30
3016
  0
VERTEX
  8
Unknown_Line_Type
  70
32
  10
2107158.94
  20
2887956.10
  30
3016
  0
VERTEX
  8
Unknown_Line_Type
  70
32
  10
2107159.08
  20
2887953.46
  30
3016
  0
VERTEX
  8
Unknown_Line_Type
  70
32
  10
2107155.62
  20
2887948.40
  30
3016
  0
VERTEX
  8
Unknown_Line_Type
  70
32
  10
2107152.77
  20
2887948.05
  30
3016
  0
VERTEX
  8
Unknown_Line_Type
  70
32
  10
2107147.81
  20
2887948.42
  30
3016
  0
VERTEX
  8
Unknown_Line_Type
  70
32
  10
2107140.09
  20
2887946.91
  30
3016
  0
VERTEX
  8
Unknown_Line_Type
  70
32
  10
2107134.80
  20
2887949.47
  30
3016
  0
VERTEX
  8
Unknown_Line_Type
  70
32
  10
2107128.61
  20
2887950.94
  30
3016
  0
VERTEX
  8
Unknown_Line_Type
  70
32
  10
2107128.56
  20
2887948.79
  30
3016
  0
VERTEX
  8
Unknown_Line_Type
  70
32
  10
2107126.10
  20
2887945.20
  30
3016
  0
VERTEX
  8
Unknown_Line_Type
  70
32
  10
2107126.09
  20
2887936.96
  30
3016
  0
VERTEX
  8
Unknown_Line_Type
  70
32
  10
2107125.10
  20
2887936.15
  30
3016
  0
VERTEX
  8
Unknown_Line_Type
  70
32
  10
2107114.43
  20
2887938.85
  30
3016
  0
VERTEX
  8
Unknown_Line_Type
  70
32
  10
2107111.23
  20
2887940.79
  30
3016
  0
VERTEX
  8
Unknown_Line_Type
  70
32
  10
2107103.21
  20
2887934.59
  30
3016
  0
VERTEX
  8
Unknown_Line_Type
  70
32
  10
2107103.78
  20
2887932.13
  30
3016
  0
VERTEX
  8
Unknown_Line_Type
  70
32
  10
2107104.13
  20
2887923.19
  30
3016
  0
VERTEX
  8
Unknown_Line_Type
  70
32
  10
2107096.30
  20
2887926.62
  30
3016
  0
VERTEX
  8
Unknown_Line_Type
  70
32
  10
2107089.60
  20
2887927.52
  30
3016
  0
VERTEX
  8
Unknown_Line_Type
  70
32
  10
2107081.44
  20
2887924.97
  30
3016
  0
VERTEX
  8
Unknown_Line_Type
  70
32
  10
2107075.65
  20
2887924.61
  30
3016
  0
VERTEX
  8
Unknown_Line_Type
  70
32
  10
2107067.75
  20
2887918.23
  30
3016
  0
VERTEX
  8
Unknown_Line_Type
  70
32
  10
2107070.34
  20
2887911.22
  30
3016
  0
VERTEX
  8
Unknown_Line_Type
  70
32
  10
2107065.68
  20
2887903.31
  30
3016
  0
VERTEX
  8
Unknown_Line_Type
  70
32
  10
2107065.42
  20
2887901.17
  30
3016
  0
VERTEX
  8
Unknown_Line_Type
  70
32
  10
2107060.36
  20
2887898.35
  30
3016
  0
VERTEX
  8
Unknown_Line_Type
  70
32
  10
2107051.72
  20
2887884.15
  30
3016
  0
VERTEX
  8
Unknown_Line_Type
  70
32
  10
2107050.63
  20
2887881.22
  30
3016
  0
VERTEX
  8
Unknown_Line_Type
  70
32
  10
2107049.09
  20
2887877.72
  30
3016
  0
VERTEX
  8
Unknown_Line_Type
  70
32
  10
2107044.47
  20
2887867.47
  30
3016
  0
VERTEX
  8
Unknown_Line_Type
  70
32
  10
2107038.62
  20
2887875.02
  30
3016
  0
VERTEX
  8
Unknown_Line_Type
  70
32
  10
2107035.16
  20
2887877.42
  30
3016
  0
VERTEX
  8
Unknown_Line_Type
  70
32
  10
2107028.77
  20
2887881.58
  30
3016
  0
VERTEX
  8
Unknown_Line_Type
  70
32
  10
2107020.45
  20
2887886.83
  30
3016
  0
VERTEX
  8
Unknown_Line_Type
  70
32
  10
2107014.50
  20
2887885.51
  30
3016
  0
VERTEX
  8
Unknown_Line_Type
  70
32
  10
2107004.74
  20
2887876.54
  30
3016
  0
VERTEX
  8
Unknown_Line_Type
  70
32
  10
2107002.37
  20
2887874.11
  30
3016
  0
VERTEX
  8
Unknown_Line_Type
  70
32
  10
2106999.59
  20
2887874.20
  30
3016
  0
VERTEX
  8
Unknown_Line_Type
  70
32
  10
2106994.75
  20
2887873.46
  30
3016
  0
VERTEX
  8
Unknown_Line_Type
  70
32
  10
2106991.45
  20
2887876.42
  30
3016
  0
VERTEX
  8
Unknown_Line_Type
  70
32
  10
2106987.74
  20
2887881.62
  30
3016
  0
VERTEX
  8
Unknown_Line_Type
  70
32
  10
2106977.18
  20
2887884.91
  30
3016
  0
VERTEX
  8
Unknown_Line_Type
  70
32
  10
2106971.81
  20
2887886.31
  30
3016
  0
VERTEX
  8
Unknown_Line_Type
  70
32
  10
2106965.73
  20
2887887.50
  30
3016
  0
VERTEX
  8
Unknown_Line_Type
  70
32
  10
2106964.34
  20
2887888.00
  30
3016
  0
VERTEX
  8
Unknown_Line_Type
  70
32
  10
2106955.06
  20
2887895.29
  30
3016
  0
VERTEX
  8
Unknown_Line_Type
  70
32
  10
2106951.61
  20
2887899.14
  30
3016
  0
VERTEX
  8
Unknown_Line_Type
  70
32
  10
2106945.99
  20
2887895.45
  30
3016
  0
VERTEX
  8
Unknown_Line_Type
  70
32
  10
2106943.19
  20
2887898.03
  30
3016
  0
VERTEX
  8
Unknown_Line_Type
  70
32
  10
2106942.53
  20
2887898.86
  30
3016
  0
VERTEX
  8
Unknown_Line_Type
  70
32
  10
2106938.57
  20
2887897.91
  30
3016
  0
VERTEX
  8
Unknown_Line_Type
  70
32
  10
2106930.81
  20
2887902.64
  30
3016
  0
VERTEX
  8
Unknown_Line_Type
  70
32
  10
2106925.90
  20
2887899.49
  30
3016
  0
VERTEX
  8
Unknown_Line_Type
  70
32
  10
2106922.54
  20
2887903.33
  30
3016
  0
VERTEX
  8
Unknown_Line_Type
  70
32
  10
2106911.70
  20
2887902.71
  30
3016
  0
VERTEX
  8
Unknown_Line_Type
  70
32
  10
2106904.94
  20
2887903.28
  30
3016
  0
VERTEX
  8
Unknown_Line_Type
  70
32
  10
2106902.25
  20
2887904.16
  30
3016
  0
VERTEX
  8
Unknown_Line_Type
  70
32
  10
2106894.24
  20
2887906.92
  30
3016
  0
VERTEX
  8
Unknown_Line_Type
  70
32
  10
2106888.69
  20
2887904.29
  30
3016
  0
VERTEX
  8
Unknown_Line_Type
  70
32
  10
2106876.72
  20
2887903.41
  30
3016
  0
VERTEX
  8
Unknown_Line_Type
  70
32
  10
2106871.58
  20
2887905.89
  30
3016
  0
VERTEX
  8
Unknown_Line_Type
  70
32
  10
2106865.04
  20
2887903.00
  30
3016
  0
VERTEX
  8
Unknown_Line_Type
  70
32
  10
2106858.17
  20
2887901.53
  30
3016
  0
VERTEX
  8
Unknown_Line_Type
  70
32
  10
2106854.47
  20
2887902.21
  30
3016
  0
VERTEX
  8
Unknown_Line_Type
  70
32
  10
2106849.46
  20
2887902.40
  30
3016
  0
VERTEX
  8
Unknown_Line_Type
  70
32
  10
2106842.93
  20
2887901.51
  30
3016
  0
VERTEX
  8
Unknown_Line_Type
  70
32
  10
2106839.91
  20
2887900.79
  30
3016
  0
VERTEX
  8
Unknown_Line_Type
  70
32
  10
2106835.18
  20
2887900.16
  30
3016
  0
VERTEX
  8
Unknown_Line_Type
  70
32
  10
2106833.03
  20
2887903.29
  30
3016
  0
VERTEX
  8
Unknown_Line_Type
  70
32
  10
2106832.47
  20
2887903.15
  30
3016
  0
VERTEX
  8
Unknown_Line_Type
  70
32
  10
2106825.26
  20
2887904.67
  30
3016
  0
VERTEX
  8
Unknown_Line_Type
  70
32
  10
2106819.41
  20
2887898.63
  30
3016
  0
VERTEX
  8
Unknown_Line_Type
  70
32
  10
2106813.28
  20
2887891.71
  30
3016
  0
VERTEX
  8
Unknown_Line_Type
  70
32
  10
2106811.16
  20
2887891.24
  30
3016
  0
VERTEX
  8
Unknown_Line_Type
  70
32
  10
2106807.95
  20
2887889.40
  30
3016
  0
VERTEX
  8
Unknown_Line_Type
  70
32
  10
2106803.30
  20
2887889.73
  30
3016
  0
VERTEX
  8
Unknown_Line_Type
  70
32
  10
2106803.07
  20
2887894.30
  30
3016
  0
VERTEX
  8
Unknown_Line_Type
  70
32
  10
2106795.30
  20
2887899.00
  30
3016
  0
VERTEX
  8
Unknown_Line_Type
  70
32
  10
2106788.81
  20
2887893.67
  30
3016
  0
VERTEX
  8
Unknown_Line_Type
  70
32
  10
2106787.83
  20
2887888.29
  30
3016
  0
VERTEX
  8
Unknown_Line_Type
  70
32
  10
2106785.62
  20
2887886.32
  30
3016
  0
VERTEX
  8
Unknown_Line_Type
  70
32
  10
2106771.95
  20
2887883.03
  30
3016
  0
VERTEX
  8
Unknown_Line_Type
  70
32
  10
2106770.07
  20
2887881.08
  30
3016
  0
VERTEX
  8
Unknown_Line_Type
  70
32
  10
2106766.49
  20
2887879.92
  30
3016
  0
VERTEX
  8
Unknown_Line_Type
  70
32
  10
2106766.25
  20
2887877.31
  30
3016
  0
VERTEX
  8
Unknown_Line_Type
  70
32
  10
2106763.57
  20
2887869.29
  30
3016
  0
VERTEX
  8
Unknown_Line_Type
  70
32
  10
2106762.64
  20
2887864.61
  30
3016
  0
VERTEX
  8
Unknown_Line_Type
  70
32
  10
2106760.16
  20
2887860.94
  30
3016
  0
VERTEX
  8
Unknown_Line_Type
  70
32
  10
2106760.61
  20
2887852.60
  30
3016
  0
VERTEX
  8
Unknown_Line_Type
  70
32
  10
2106756.31
  20
2887844.34
  30
3016
  0
VERTEX
  8
Unknown_Line_Type
  70
32
  10
2106751.39
  20
2887838.33
  30
3016
  0
VERTEX
  8
Unknown_Line_Type
  70
32
  10
2106749.44
  20
2887837.13
  30
3016
  0
VERTEX
  8
Unknown_Line_Type
  70
32
  10
2106752.05
  20
2887830.30
  30
3016
  0
VERTEX
  8
Unknown_Line_Type
  70
32
  10
2106755.24
  20
2887825.09
  30
3016
  0
VERTEX
  8
Unknown_Line_Type
  70
32
  10
2106754.53
  20
2887819.77
  30
3016
  0
VERTEX
  8
Unknown_Line_Type
  70
32
  10
2106755.86
  20
2887813.00
  30
3016
  0
VERTEX
  8
Unknown_Line_Type
  70
32
  10
2106751.26
  20
2887806.63
  30
3016
  0
VERTEX
  8
Unknown_Line_Type
  70
32
  10
2106749.16
  20
2887799.70
  30
3016
  0
VERTEX
  8
Unknown_Line_Type
  70
32
  10
2106751.96
  20
2887792.84
  30
3016
  0
VERTEX
  8
Unknown_Line_Type
  70
32
  10
2106754.54
  20
2887786.24
  30
3016
  0
VERTEX
  8
Unknown_Line_Type
  70
32
  10
2106753.41
  20
2887782.37
  30
3016
  0
VERTEX
  8
Unknown_Line_Type
  70
32
  10
2106752.67
  20
2887766.52
  30
3016
  0
VERTEX
  8
Unknown_Line_Type
  70
32
  10
2106755.85
  20
2887762.66
  30
3016
  0
VERTEX
  8
Unknown_Line_Type
  70
32
  10
2106754.31
  20
2887759.56
  30
3016
  0
VERTEX
  8
Unknown_Line_Type
  70
32
  10
2106761.20
  20
2887751.16
  30
3016
  0
VERTEX
  8
Unknown_Line_Type
  70
32
  10
2106764.14
  20
2887746.74
  30
3016
  0
VERTEX
  8
Unknown_Line_Type
  70
32
  10
2106761.43
  20
2887740.88
  30
3016
  0
VERTEX
  8
Unknown_Line_Type
  70
32
  10
2106755.77
  20
2887734.62
  30
3016
  0
VERTEX
  8
Unknown_Line_Type
  70
32
  10
2106758.80
  20
2887729.62
  30
3016
  0
VERTEX
  8
Unknown_Line_Type
  70
32
  10
2106757.42
  20
2887723.77
  30
3016
  0
VERTEX
  8
Unknown_Line_Type
  70
32
  10
2106768.88
  20
2887720.89
  30
3016
  0
VERTEX
  8
Unknown_Line_Type
  70
32
  10
2106773.44
  20
2887723.03
  30
3016
  0
VERTEX
  8
Unknown_Line_Type
  70
32
  10
2106777.09
  20
2887719.72
  30
3016
  0
VERTEX
  8
Unknown_Line_Type
  70
32
  10
2106773.23
  20
2887716.32
  30
3016
  0
VERTEX
  8
Unknown_Line_Type
  70
32
  10
2106771.18
  20
2887715.89
  30
3016
  0
VERTEX
  8
Unknown_Line_Type
  70
32
  10
2106759.92
  20
2887718.33
  30
3016
  0
VERTEX
  8
Unknown_Line_Type
  70
32
  10
2106759.02
  20
2887705.52
  30
3016
  0
VERTEX
  8
Unknown_Line_Type
  70
32
  10
2106757.74
  20
2887698.56
  30
3016
  0
VERTEX
  8
Unknown_Line_Type
  70
32
  10
2106755.76
  20
2887699.17
  30
3016
  0
VERTEX
  8
Unknown_Line_Type
  70
32
  10
2106751.62
  20
2887697.96
  30
3016
  0
VERTEX
  8
Unknown_Line_Type
  70
32
  10
2106742.64
  20
2887698.29
  30
3016
  0
VERTEX
  8
Unknown_Line_Type
  70
32
  10
2106736.90
  20
2887705.23
  30
3016
  0
VERTEX
  8
Unknown_Line_Type
  70
32
  10
2106734.95
  20
2887706.10
  30
3016
  0
VERTEX
  8
Unknown_Line_Type
  70
32
  10
2106735.16
  20
2887707.54
  30
3016
  0
VERTEX
  8
Unknown_Line_Type
  70
32
  10
2106730.60
  20
2887708.87
  30
3016
  0
VERTEX
  8
Unknown_Line_Type
  70
32
  10
2106730.74
  20
2887704.21
  30
3016
  0
VERTEX
  8
Unknown_Line_Type
  70
32
  10
2106730.89
  20
2887699.12
  30
3016
  0
VERTEX
  8
Unknown_Line_Type
  70
32
  10
2106732.08
  20
2887682.80
  30
3016
  0
VERTEX
  8
Unknown_Line_Type
  70
32
  10
2106726.50
  20
2887677.50
  30
3016
  0
VERTEX
  8
Unknown_Line_Type
  70
32
  10
2106725.40
  20
2887677.79
  30
3016
  0
VERTEX
  8
Unknown_Line_Type
  70
32
  10
2106719.06
  20
2887671.98
  30
3016
  0
VERTEX
  8
Unknown_Line_Type
  70
32
  10
2106715.61
  20
2887662.45
  30
3016
  0
VERTEX
  8
Unknown_Line_Type
  70
32
  10
2106709.01
  20
2887663.06
  30
3016
  0
VERTEX
  8
Unknown_Line_Type
  70
32
  10
2106697.40
  20
2887657.59
  30
3016
  0
VERTEX
  8
Unknown_Line_Type
  70
32
  10
2106695.99
  20
2887647.60
  30
3016
  0
VERTEX
  8
Unknown_Line_Type
  70
32
  10
2106690.56
  20
2887639.65
  30
3016
  0
VERTEX
  8
Unknown_Line_Type
  70
32
  10
2106691.28
  20
2887639.02
  30
3016
  0
VERTEX
  8
Unknown_Line_Type
  70
32
  10
2106690.62
  20
2887635.00
  30
3016
  0
SEQEND
  8
Unknown_Line_Type
  0
POLYLINE
  8
Unknown_Line_Type
  70
8
  66
1
 62
0
 39
0
  0
VERTEX
  8
Unknown_Line_Type
  70
32
  10
2107112.31
  20
2887635.00
  30
3016
  0
VERTEX
  8
Unknown_Line_Type
  70
32
  10
2107114.43
  20
2887635.76
  30
3016
  0
VERTEX
  8
Unknown_Line_Type
  70
32
  10
2107117.30
  20
2887635.36
  30
3016
  0
VERTEX
  8
Unknown_Line_Type
  70
32
  10
2107121.69
  20
2887636.35
  30
3016
  0
VERTEX
  8
Unknown_Line_Type
  70
32
  10
2107120.99
  20
2887635.00
  30
3016
  0
SEQEND
  8
Unknown_Line_Type
  0
POLYLINE
  8
Unknown_Line_Type
  70
8
  66
1
 62
0
 39
0
  0
VERTEX
  8
Unknown_Line_Type
  70
32
  10
2107337.16
  20
2887635.00
  30
3018
  0
VERTEX
  8
Unknown_Line_Type
  70
32
  10
2107336.57
  20
2887635.11
  30
3018
  0
VERTEX
  8
Unknown_Line_Type
  70
32
  10
2107333.86
  20
2887640.14
  30
3018
  0
VERTEX
  8
Unknown_Line_Type
  70
32
  10
2107324.68
  20
2887636.17
  30
3018
  0
VERTEX
  8
Unknown_Line_Type
  70
32
  10
2107324.72
  20
2887635.00
  30
3018
  0
SEQEND
  8
Unknown_Line_Type
  0
POLYLINE
  8
Unknown_Line_Type
  70
8
  66
1
 62
0
 39
0
  0
VERTEX
  8
Unknown_Line_Type
  70
32
  10
2107313.83
  20
2887635.00
  30
3018
  0
VERTEX
  8
Unknown_Line_Type
  70
32
  10
2107313.23
  20
2887635.18
  30
3018
  0
VERTEX
  8
Unknown_Line_Type
  70
32
  10
2107312.68
  20
2887635.00
  30
3018
  0
SEQEND
  8
Unknown_Line_Type
  0
POLYLINE
  8
Unknown_Line_Type
  70
8
  66
1
 62
0
 39
0
  0
VERTEX
  8
Unknown_Line_Type
  70
32
  10
2107295.42
  20
2887635.00
  30
3018
  0
VERTEX
  8
Unknown_Line_Type
  70
32
  10
2107299.39
  20
2887640.68
  30
3018
  0
VERTEX
  8
Unknown_Line_Type
  70
32
  10
2107307.86
  20
2887647.62
  30
3018
  0
VERTEX
  8
Unknown_Line_Type
  70
32
  10
2107318.39
  20
2887648.37
  30
3018
  0
VERTEX
  8
Unknown_Line_Type
  70
32
  10
2107319.72
  20
2887650.30
  30
3018
  0
VERTEX
  8
Unknown_Line_Type
  70
32
  10
2107327.18
  20
2887662.38
  30
3018
  0
VERTEX
  8
Unknown_Line_Type
  70
32
  10
2107333.29
  20
2887675.19
  30
3018
  0
VERTEX
  8
Unknown_Line_Type
  70
32
  10
2107335.74
  20
2887681.66
  30
3018
  0
VERTEX
  8
Unknown_Line_Type
  70
32
  10
2107335.68
  20
2887682.67
  30
3018
  0
VERTEX
  8
Unknown_Line_Type
  70
32
  10
2107335.90
  20
2887689.39
  30
3018
  0
VERTEX
  8
Unknown_Line_Type
  70
32
  10
2107339.78
  20
2887695.00
  30
3018
  0
VERTEX
  8
Unknown_Line_Type
  70
32
  10
2107347.33
  20
2887695.36
  30
3018
  0
VERTEX
  8
Unknown_Line_Type
  70
32
  10
2107348.36
  20
2887685.79
  30
3018
  0
VERTEX
  8
Unknown_Line_Type
  70
32
  10
2107343.45
  20
2887682.66
  30
3018
  0
VERTEX
  8
Unknown_Line_Type
  70
32
  10
2107341.31
  20
2887679.01
  30
3018
  0
VERTEX
  8
Unknown_Line_Type
  70
32
  10
2107339.58
  20
2887671.73
  30
3018
  0
VERTEX
  8
Unknown_Line_Type
  70
32
  10
2107346.18
  20
2887674.10
  30
3018
  0
VERTEX
  8
Unknown_Line_Type
  70
32
  10
2107352.51
  20
2887675.54
  30
3018
  0
VERTEX
  8
Unknown_Line_Type
  70
32
  10
2107357.20
  20
2887676.80
  30
3018
  0
VERTEX
  8
Unknown_Line_Type
  70
32
  10
2107362.55
  20
2887680.33
  30
3018
  0
VERTEX
  8
Unknown_Line_Type
  70
32
  10
2107366.43
  20
2887681.00
  30
3018
  0
VERTEX
  8
Unknown_Line_Type
  70
32
  10
2107370.05
  20
2887685.68
  30
3018
  0
VERTEX
  8
Unknown_Line_Type
  70
32
  10
2107381.31
  20
2887691.11
  30
3018
  0
VERTEX
  8
Unknown_Line_Type
  70
32
  10
2107383.10
  20
2887692.77
  30
3018
  0
VERTEX
  8
Unknown_Line_Type
  70
32
  10
2107384.74
  20
2887693.27
  30
3018
  0
VERTEX
  8
Unknown_Line_Type
  70
32
  10
2107384.62
  20
2887699.19
  30
3018
  0
VERTEX
  8
Unknown_Line_Type
  70
32
  10
2107376.39
  20
2887707.35
  30
3018
  0
VERTEX
  8
Unknown_Line_Type
  70
32
  10
2107371.06
  20
2887697.93
  30
3018
  0
VERTEX
  8
Unknown_Line_Type
  70
32
  10
2107364.89
  20
2887693.86
  30
3018
  0
VERTEX
  8
Unknown_Line_Type
  70
32
  10
2107362.34
  20
2887694.40
  30
3018
  0
VERTEX
  8
Unknown_Line_Type
  70
32
  10
2107359.34
  20
2887699.24
  30
3018
  0
VERTEX
  8
Unknown_Line_Type
  70
32
  10
2107359.73
  20
2887703.75
  30
3018
  0
VERTEX
  8
Unknown_Line_Type
  70
32
  10
2107364.15
  20
2887714.62
  30
3018
  0
VERTEX
  8
Unknown_Line_Type
  70
32
  10
2107356.65
  20
2887717.36
  30
3018
  0
VERTEX
  8
Unknown_Line_Type
  70
32
  10
2107354.96
  20
2887722.58
  30
3018
  0
VERTEX
  8
Unknown_Line_Type
  70
32
  10
2107347.99
  20
2887723.08
  30
3018
  0
VERTEX
  8
Unknown_Line_Type
  70
32
  10
2107345.70
  20
2887717.99
  30
3018
  0
VERTEX
  8
Unknown_Line_Type
  70
32
  10
2107337.23
  20
2887709.19
  30
3018
  0
VERTEX
  8
Unknown_Line_Type
  70
32
  10
2107331.75
  20
2887704.84
  30
3018
  0
VERTEX
  8
Unknown_Line_Type
  70
32
  10
2107324.37
  20
2887702.54
  30
3018
  0
VERTEX
  8
Unknown_Line_Type
  70
32
  10
2107322.62
  20
2887702.44
  30
3018
  0
VERTEX
  8
Unknown_Line_Type
  70
32
  10
2107319.63
  20
2887705.04
  30
3018
  0
VERTEX
  8
Unknown_Line_Type
  70
32
  10
2107312.09
  20
2887712.29
  30
3018
  0
VERTEX
  8
Unknown_Line_Type
  70
32
  10
2107307.68
  20
2887717.47
  30
3018
  0
VERTEX
  8
Unknown_Line_Type
  70
32
  10
2107299.90
  20
2887716.45
  30
3018
  0
VERTEX
  8
Unknown_Line_Type
  70
32
  10
2107294.13
  20
2887714.64
  30
3018
  0
VERTEX
  8
Unknown_Line_Type
  70
32
  10
2107285.75
  20
2887717.02
  30
3018
  0
VERTEX
  8
Unknown_Line_Type
  70
32
  10
2107287.64
  20
2887720.88
  30
3018
  0
VERTEX
  8
Unknown_Line_Type
  70
32
  10
2107286.93
  20
2887721.56
  30
3018
  0
VERTEX
  8
Unknown_Line_Type
  70
32
  10
2107285.43
  20
2887722.72
  30
3018
  0
VERTEX
  8
Unknown_Line_Type
  70
32
  10
2107285.93
  20
2887727.00
  30
3018
  0
VERTEX
  8
Unknown_Line_Type
  70
32
  10
2107280.25
  20
2887727.17
  30
3018
  0
VERTEX
  8
Unknown_Line_Type
  70
32
  10
2107279.95
  20
2887723.04
  30
3018
  0
VERTEX
  8
Unknown_Line_Type
  70
32
  10
2107277.08
  20
2887718.09
  30
3018
  0
VERTEX
  8
Unknown_Line_Type
  70
32
  10
2107281.15
  20
2887712.82
  30
3018
  0
VERTEX
  8
Unknown_Line_Type
  70
32
  10
2107288.24
  20
2887711.45
  30
3018
  0
VERTEX
  8
Unknown_Line_Type
  70
32
  10
2107292.55
  20
2887708.42
  30
3018
  0
VERTEX
  8
Unknown_Line_Type
  70
32
  10
2107298.50
  20
2887691.29
  30
3018
  0
VERTEX
  8
Unknown_Line_Type
  70
32
  10
2107297.97
  20
2887687.74
  30
3018
  0
VERTEX
  8
Unknown_Line_Type
  70
32
  10
2107292.50
  20
2887684.00
  30
3018
  0
VERTEX
  8
Unknown_Line_Type
  70
32
  10
2107288.68
  20
2887680.32
  30
3018
  0
VERTEX
  8
Unknown_Line_Type
  70
32
  10
2107291.90
  20
2887672.46
  30
3018
  0
VERTEX
  8
Unknown_Line_Type
  70
32
  10
2107291.56
  20
2887668.31
  30
3018
  0
VERTEX
  8
Unknown_Line_Type
  70
32
  10
2107290.89
  20
2887666.00
  30
3018
  0
VERTEX
  8
Unknown_Line_Type
  70
32
  10
2107285.44
  20
2887667.88
  30
3018
  0
VERTEX
  8
Unknown_Line_Type
  70
32
  10
2107281.64
  20
2887674.91
  30
3018
  0
VERTEX
  8
Unknown_Line_Type
  70
32
  10
2107277.81
  20
2887678.29
  30
3018
  0
VERTEX
  8
Unknown_Line_Type
  70
32
  10
2107265.62
  20
2887678.82
  30
3018
  0
VERTEX
  8
Unknown_Line_Type
  70
32
  10
2107258.18
  20
2887678.86
  30
3018
  0
VERTEX
  8
Unknown_Line_Type
  70
32
  10
2107251.84
  20
2887677.68
  30
3018
  0
VERTEX
  8
Unknown_Line_Type
  70
32
  10
2107240.83
  20
2887677.20
  30
3018
  0
VERTEX
  8
Unknown_Line_Type
  70
32
  10
2107234.14
  20
2887668.03
  30
3018
  0
VERTEX
  8
Unknown_Line_Type
  70
32
  10
2107232.78
  20
2887667.22
  30
3018
  0
VERTEX
  8
Unknown_Line_Type
  70
32
  10
2107231.30
  20
2887665.39
  30
3018
  0
VERTEX
  8
Unknown_Line_Type
  70
32
  10
2107230.13
  20
2887667.06
  30
3018
  0
VERTEX
  8
Unknown_Line_Type
  70
32
  10
2107229.83
  20
2887668.90
  30
3018
  0
VERTEX
  8
Unknown_Line_Type
  70
32
  10
2107232.55
  20
2887679.30
  30
3018
  0
VERTEX
  8
Unknown_Line_Type
  70
32
  10
2107229.62
  20
2887683.41
  30
3018
  0
VERTEX
  8
Unknown_Line_Type
  70
32
  10
2107224.55
  20
2887687.76
  30
3018
  0
VERTEX
  8
Unknown_Line_Type
  70
32
  10
2107222.76
  20
2887693.98
  30
3018
  0
VERTEX
  8
Unknown_Line_Type
  70
32
  10
2107221.46
  20
2887699.68
  30
3018
  0
VERTEX
  8
Unknown_Line_Type
  70
32
  10
2107215.69
  20
2887696.70
  30
3018
  0
VERTEX
  8
Unknown_Line_Type
  70
32
  10
2107217.58
  20
2887692.29
  30
3018
  0
VERTEX
  8
Unknown_Line_Type
  70
32
  10
2107218.84
  20
2887686.23
  30
3018
  0
VERTEX
  8
Unknown_Line_Type
  70
32
  10
2107215.70
  20
2887684.74
  30
3018
  0
VERTEX
  8
Unknown_Line_Type
  70
32
  10
2107212.11
  20
2887678.48
  30
3018
  0
VERTEX
  8
Unknown_Line_Type
  70
32
  10
2107213.34
  20
2887673.28
  30
3018
  0
VERTEX
  8
Unknown_Line_Type
  70
32
  10
2107207.79
  20
2887667.17
  30
3018
  0
VERTEX
  8
Unknown_Line_Type
  70
32
  10
2107201.66
  20
2887664.68
  30
3018
  0
VERTEX
  8
Unknown_Line_Type
  70
32
  10
2107194.91
  20
2887667.06
  30
3018
  0
VERTEX
  8
Unknown_Line_Type
  70
32
  10
2107191.18
  20
2887674.01
  30
3018
  0
VERTEX
  8
Unknown_Line_Type
  70
32
  10
2107189.42
  20
2887677.12
  30
3018
  0
VERTEX
  8
Unknown_Line_Type
  70
32
  10
2107182.73
  20
2887683.09
  30
3018
  0
VERTEX
  8
Unknown_Line_Type
  70
32
  10
2107173.22
  20
2887676.49
  30
3018
  0
VERTEX
  8
Unknown_Line_Type
  70
32
  10
2107170.70
  20
2887673.11
  30
3018
  0
VERTEX
  8
Unknown_Line_Type
  70
32
  10
2107167.58
  20
2887665.80
  30
3018
  0
VERTEX
  8
Unknown_Line_Type
  70
32
  10
2107165.22
  20
2887663.99
  30
3018
  0
VERTEX
  8
Unknown_Line_Type
  70
32
  10
2107162.44
  20
2887666.26
  30
3018
  0
VERTEX
  8
Unknown_Line_Type
  70
32
  10
2107161.37
  20
2887671.65
  30
3018
  0
VERTEX
  8
Unknown_Line_Type
  70
32
  10
2107160.97
  20
2887678.04
  30
3018
  0
VERTEX
  8
Unknown_Line_Type
  70
32
  10
2107157.08
  20
2887683.43
  30
3018
  0
VERTEX
  8
Unknown_Line_Type
  70
32
  10
2107153.89
  20
2887680.53
  30
3018
  0
VERTEX
  8
Unknown_Line_Type
  70
32
  10
2107137.34
  20
2887676.19
  30
3018
  0
VERTEX
  8
Unknown_Line_Type
  70
32
  10
2107135.72
  20
2887675.49
  30
3018
  0
VERTEX
  8
Unknown_Line_Type
  70
32
  10
2107124.83
  20
2887683.13
  30
3018
  0
VERTEX
  8
Unknown_Line_Type
  70
32
  10
2107121.75
  20
2887683.57
  30
3018
  0
VERTEX
  8
Unknown_Line_Type
  70
32
  10
2107117.00
  20
2887681.17
  30
3018
  0
VERTEX
  8
Unknown_Line_Type
  70
32
  10
2107117.38
  20
2887677.57
  30
3018
  0
VERTEX
  8
Unknown_Line_Type
  70
32
  10
2107117.12
  20
2887664.27
  30
3018
  0
VERTEX
  8
Unknown_Line_Type
  70
32
  10
2107109.39
  20
2887661.85
  30
3018
  0
VERTEX
  8
Unknown_Line_Type
  70
32
  10
2107106.57
  20
2887658.79
  30
3018
  0
VERTEX
  8
Unknown_Line_Type
  70
32
  10
2107100.18
  20
2887659.91
  30
3018
  0
VERTEX
  8
Unknown_Line_Type
  70
32
  10
2107099.27
  20
2887662.71
  30
3018
  0
VERTEX
  8
Unknown_Line_Type
  70
32
  10
2107102.10
  20
2887666.36
  30
3018
  0
VERTEX
  8
Unknown_Line_Type
  70
32
  10
2107097.38
  20
2887671.35
  30
3018
  0
VERTEX
  8
Unknown_Line_Type
  70
32
  10
2107090.85
  20
2887673.94
  30
3018
  0
VERTEX
  8
Unknown_Line_Type
  70
32
  10
2107077.45
  20
2887674.13
  30
3018
  0
VERTEX
  8
Unknown_Line_Type
  70
32
  10
2107072.09
  20
2887686.06
  30
3018
  0
VERTEX
  8
Unknown_Line_Type
  70
32
  10
2107072.53
  20
2887687.01
  30
3018
  0
VERTEX
  8
Unknown_Line_Type
  70
32
  10
2107070.19
  20
2887689.28
  30
3018
  0
VERTEX
  8
Unknown_Line_Type
  70
32
  10
2107066.74
  20
2887688.16
  30
3018
  0
VERTEX
  8
Unknown_Line_Type
  70
32
  10
2107064.79
  20
2887683.61
  30
3018
  0
VERTEX
  8
Unknown_Line_Type
  70
32
  10
2107067.92
  20
2887680.98
  30
3018
  0
VERTEX
  8
Unknown_Line_Type
  70
32
  10
2107072.37
  20
2887669.99
  30
3018
  0
VERTEX
  8
Unknown_Line_Type
  70
32
  10
2107071.77
  20
2887666.96
  30
3018
  0
VERTEX
  8
Unknown_Line_Type
  70
32
  10
2107064.90
  20
2887662.75
  30
3018
  0
VERTEX
  8
Unknown_Line_Type
  70
32
  10
2107059.56
  20
2887655.44
  30
3018
  0
VERTEX
  8
Unknown_Line_Type
  70
32
  10
2107059.05
  20
2887653.42
  30
3018
  0
VERTEX
  8
Unknown_Line_Type
  70
32
  10
2107059.48
  20
2887650.81
  30
3018
  0
VERTEX
  8
Unknown_Line_Type
  70
32
  10
2107057.66
  20
2887646.47
  30
3018
  0
VERTEX
  8
Unknown_Line_Type
  70
32
  10
2107057.10
  20
2887645.02
  30
3018
  0
VERTEX
  8
Unknown_Line_Type
  70
32
  10
2107055.98
  20
2887642.54
  30
3018
  0
VERTEX
  8
Unknown_Line_Type
  70
32
  10
2107053.63
  20
2887645.55
  30
3018
  0
VERTEX
  8
Unknown_Line_Type
  70
32
  10
2107053.24
  20
2887648.46
  30
3018
  0
VERTEX
  8
Unknown_Line_Type
  70
32
  10
2107054.48
  20
2887653.16
  30
3018
  0
VERTEX
  8
Unknown_Line_Type
  70
32
  10
2107055.62
  20
2887655.51
  30
3018
  0
VERTEX
  8
Unknown_Line_Type
  70
32
  10
2107055.51
  20
2887656.08
  30
3018
  0
VERTEX
  8
Unknown_Line_Type
  70
32
  10
2107054.84
  20
2887671.92
  30
3018
  0
VERTEX
  8
Unknown_Line_Type
  70
32
  10
2107041.99
  20
2887670.71
  30
3018
  0
VERTEX
  8
Unknown_Line_Type
  70
32
  10
2107036.68
  20
2887672.38
  30
3018
  0
VERTEX
  8
Unknown_Line_Type
  70
32
  10
2107027.01
  20
2887672.71
  30
3018
  0
VERTEX
  8
Unknown_Line_Type
  70
32
  10
2107026.87
  20
2887667.13
  30
3018
  0
VERTEX
  8
Unknown_Line_Type
  70
32
  10
2107024.25
  20
2887663.59
  30
3018
  0
VERTEX
  8
Unknown_Line_Type
  70
32
  10
2107023.56
  20
2887662.72
  30
3018
  0
VERTEX
  8
Unknown_Line_Type
  70
32
  10
2107017.40
  20
2887662.11
  30
3018
  0
VERTEX
  8
Unknown_Line_Type
  70
32
  10
2107017.63
  20
2887668.28
  30
3018
  0
VERTEX
  8
Unknown_Line_Type
  70
32
  10
2107013.55
  20
2887675.10
  30
3018
  0
VERTEX
  8
Unknown_Line_Type
  70
32
  10
2107013.01
  20
2887675.37
  30
3018
  0
VERTEX
  8
Unknown_Line_Type
  70
32
  10
2107006.35
  20
2887676.16
  30
3018
  0
VERTEX
  8
Unknown_Line_Type
  70
32
  10
2107005.53
  20
2887677.01
  30
3018
  0
VERTEX
  8
Unknown_Line_Type
  70
32
  10
2106995.97
  20
2887678.52
  30
3018
  0
VERTEX
  8
Unknown_Line_Type
  70
32
  10
2106987.23
  20
2887671.10
  30
3018
  0
VERTEX
  8
Unknown_Line_Type
  70
32
  10
2106980.39
  20
2887679.80
  30
3018
  0
VERTEX
  8
Unknown_Line_Type
  70
32
  10
2106980.11
  20
2887684.64
  30
3018
  0
VERTEX
  8
Unknown_Line_Type
  70
32
  10
2106980.72
  20
2887689.12
  30
3018
  0
VERTEX
  8
Unknown_Line_Type
  70
32
  10
2106974.82
  20
2887690.91
  30
3018
  0
VERTEX
  8
Unknown_Line_Type
  70
32
  10
2106974.31
  20
2887684.05
  30
3018
  0
VERTEX
  8
Unknown_Line_Type
  70
32
  10
2106973.23
  20
2887679.76
  30
3018
  0
VERTEX
  8
Unknown_Line_Type
  70
32
  10
2106967.09
  20
2887679.93
  30
3018
  0
VERTEX
  8
Unknown_Line_Type
  70
32
  10
2106959.12
  20
2887684.07
  30
3018
  0
VERTEX
  8
Unknown_Line_Type
  70
32
  10
2106950.05
  20
2887687.97
  30
3018
  0
VERTEX
  8
Unknown_Line_Type
  70
32
  10
2106945.93
  20
2887686.94
  30
3018
  0
VERTEX
  8
Unknown_Line_Type
  70
32
  10
2106942.61
  20
2887689.28
  30
3018
  0
VERTEX
  8
Unknown_Line_Type
  70
32
  10
2106943.86
  20
2887693.88
  30
3018
  0
VERTEX
  8
Unknown_Line_Type
  70
32
  10
2106944.86
  20
2887702.91
  30
3018
  0
VERTEX
  8
Unknown_Line_Type
  70
32
  10
2106945.03
  20
2887708.22
  30
3018
  0
VERTEX
  8
Unknown_Line_Type
  70
32
  10
2106945.07
  20
2887711.77
  30
3018
  0
VERTEX
  8
Unknown_Line_Type
  70
32
  10
2106946.82
  20
2887720.44
  30
3018
  0
VERTEX
  8
Unknown_Line_Type
  70
32
  10
2106947.13
  20
2887722.46
  30
3018
  0
VERTEX
  8
Unknown_Line_Type
  70
32
  10
2106947.76
  20
2887729.87
  30
3018
  0
VERTEX
  8
Unknown_Line_Type
  70
32
  10
2106949.69
  20
2887732.40
  30
3018
  0
VERTEX
  8
Unknown_Line_Type
  70
32
  10
2106950.93
  20
2887738.61
  30
3018
  0
VERTEX
  8
Unknown_Line_Type
  70
32
  10
2106943.82
  20
2887737.49
  30
3018
  0
VERTEX
  8
Unknown_Line_Type
  70
32
  10
2106939.59
  20
2887734.00
  30
3018
  0
VERTEX
  8
Unknown_Line_Type
  70
32
  10
2106932.83
  20
2887740.31
  30
3018
  0
VERTEX
  8
Unknown_Line_Type
  70
32
  10
2106932.12
  20
2887741.25
  30
3018
  0
VERTEX
  8
Unknown_Line_Type
  70
32
  10
2106933.68
  20
2887751.16
  30
3018
  0
VERTEX
  8
Unknown_Line_Type
  70
32
  10
2106936.89
  20
2887763.72
  30
3018
  0
VERTEX
  8
Unknown_Line_Type
  70
32
  10
2106933.88
  20
2887768.01
  30
3018
  0
VERTEX
  8
Unknown_Line_Type
  70
32
  10
2106935.73
  20
2887771.10
  30
3018
  0
VERTEX
  8
Unknown_Line_Type
  70
32
  10
2106935.13
  20
2887779.38
  30
3018
  0
VERTEX
  8
Unknown_Line_Type
  70
32
  10
2106937.13
  20
2887785.30
  30
3018
  0
VERTEX
  8
Unknown_Line_Type
  70
32
  10
2106937.58
  20
2887797.62
  30
3018
  0
VERTEX
  8
Unknown_Line_Type
  70
32
  10
2106939.66
  20
2887799.70
  30
3018
  0
VERTEX
  8
Unknown_Line_Type
  70
32
  10
2106941.77
  20
2887807.21
  30
3018
  0
VERTEX
  8
Unknown_Line_Type
  70
32
  10
2106961.30
  20
2887811.84
  30
3018
  0
VERTEX
  8
Unknown_Line_Type
  70
32
  10
2106968.27
  20
2887817.46
  30
3018
  0
VERTEX
  8
Unknown_Line_Type
  70
32
  10
2106967.59
  20
2887823.34
  30
3018
  0
VERTEX
  8
Unknown_Line_Type
  70
32
  10
2106970.81
  20
2887828.81
  30
3018
  0
VERTEX
  8
Unknown_Line_Type
  70
32
  10
2106973.66
  20
2887833.77
  30
3018
  0
VERTEX
  8
Unknown_Line_Type
  70
32
  10
2106977.05
  20
2887837.23
  30
3018
  0
VERTEX
  8
Unknown_Line_Type
  70
32
  10
2106979.49
  20
2887835.88
  30
3018
  0
VERTEX
  8
Unknown_Line_Type
  70
32
  10
2106980.70
  20
2887833.09
  30
3018
  0
VERTEX
  8
Unknown_Line_Type
  70
32
  10
2106986.47
  20
2887826.96
  30
3018
  0
VERTEX
  8
Unknown_Line_Type
  70
32
  10
2106989.24
  20
2887825.99
  30
3018
  0
VERTEX
  8
Unknown_Line_Type
  70
32
  10
2106993.05
  20
2887824.58
  30
3018
  0
VERTEX
  8
Unknown_Line_Type
  70
32
  10
2106997.97
  20
2887820.76
  30
3018
  0
VERTEX
  8
Unknown_Line_Type
  70
32
  10
2107005.00
  20
2887823.83
  30
3018
  0
VERTEX
  8
Unknown_Line_Type
  70
32
  10
2107007.00
  20
2887816.98
  30
3018
  0
VERTEX
  8
Unknown_Line_Type
  70
32
  10
2107011.14
  20
2887812.66
  30
3018
  0
VERTEX
  8
Unknown_Line_Type
  70
32
  10
2107011.30
  20
2887811.10
  30
3018
  0
VERTEX
  8
Unknown_Line_Type
  70
32
  10
2107019.01
  20
2887811.69
  30
3018
  0
VERTEX
  8
Unknown_Line_Type
  70
32
  10
2107022.97
  20
2887811.74
  30
3018
  0
VERTEX
  8
Unknown_Line_Type
  70
32
  10
2107022.22
  20
2887809.98
  30
3018
  0
VERTEX
  8
Unknown_Line_Type
  70
32
  10
2107021.79
  20
2887808.64
  30
3018
  0
VERTEX
  8
Unknown_Line_Type
  70
32
  10
2107022.35
  20
2887803.79
  30
3018
  0
VERTEX
  8
Unknown_Line_Type
  70
32
  10
2107022.79
  20
2887801.59
  30
3018
  0
VERTEX
  8
Unknown_Line_Type
  70
32
  10
2107021.31
  20
2887792.96
  30
3018
  0
VERTEX
  8
Unknown_Line_Type
  70
32
  10
2107022.21
  20
2887790.77
  30
3018
  0
VERTEX
  8
Unknown_Line_Type
  70
32
  10
2107027.50
  20
2887788.47
  30
3018
  0
VERTEX
  8
Unknown_Line_Type
  70
32
  10
2107033.63
  20
2887787.03
  30
3018
  0
VERTEX
  8
Unknown_Line_Type
  70
32
  10
2107043.34
  20
2887782.14
  30
3018
  0
VERTEX
  8
Unknown_Line_Type
  70
32
  10
2107048.05
  20
2887777.66
  30
3018
  0
VERTEX
  8
Unknown_Line_Type
  70
32
  10
2107052.13
  20
2887767.98
  30
3018
  0
VERTEX
  8
Unknown_Line_Type
  70
32
  10
2107055.88
  20
2887766.98
  30
3018
  0
VERTEX
  8
Unknown_Line_Type
  70
32
  10
2107060.05
  20
2887765.71
  30
3018
  0
VERTEX
  8
Unknown_Line_Type
  70
32
  10
2107068.76
  20
2887768.11
  30
3018
  0
VERTEX
  8
Unknown_Line_Type
  70
32
  10
2107075.41
  20
2887759.07
  30
3018
  0
VERTEX
  8
Unknown_Line_Type
  70
32
  10
2107081.83
  20
2887751.84
  30
3018
  0
VERTEX
  8
Unknown_Line_Type
  70
32
  10
2107083.49
  20
2887750.51
  30
3018
  0
VERTEX
  8
Unknown_Line_Type
  70
32
  10
2107090.86
  20
2887748.08
  30
3018
  0
VERTEX
  8
Unknown_Line_Type
  70
32
  10
2107091.13
  20
2887758.43
  30
3018
  0
VERTEX
  8
Unknown_Line_Type
  70
32
  10
2107090.51
  20
2887758.74
  30
3018
  0
VERTEX
  8
Unknown_Line_Type
  70
32
  10
2107085.41
  20
2887761.86
  30
3018
  0
VERTEX
  8
Unknown_Line_Type
  70
32
  10
2107074.55
  20
2887771.68
  30
3018
  0
VERTEX
  8
Unknown_Line_Type
  70
32
  10
2107078.52
  20
2887774.60
  30
3018
  0
VERTEX
  8
Unknown_Line_Type
  70
32
  10
2107078.56
  20
2887775.59
  30
3018
  0
VERTEX
  8
Unknown_Line_Type
  70
32
  10
2107081.25
  20
2887790.41
  30
3018
  0
VERTEX
  8
Unknown_Line_Type
  70
32
  10
2107089.77
  20
2887789.89
  30
3018
  0
VERTEX
  8
Unknown_Line_Type
  70
32
  10
2107092.20
  20
2887781.84
  30
3018
  0
VERTEX
  8
Unknown_Line_Type
  70
32
  10
2107091.59
  20
2887778.82
  30
3018
  0
VERTEX
  8
Unknown_Line_Type
  70
32
  10
2107093.81
  20
2887778.40
  30
3018
  0
VERTEX
  8
Unknown_Line_Type
  70
32
  10
2107098.31
  20
2887777.72
  30
3018
  0
VERTEX
  8
Unknown_Line_Type
  70
32
  10
2107101.39
  20
2887780.48
  30
3018
  0
VERTEX
  8
Unknown_Line_Type
  70
32
  10
2107102.14
  20
2887782.77
  30
3018
  0
VERTEX
  8
Unknown_Line_Type
  70
32
  10
2107103.50
  20
2887789.80
  30
3018
  0
VERTEX
  8
Unknown_Line_Type
  70
32
  10
2107101.33
  20
2887792.29
  30
3018
  0
VERTEX
  8
Unknown_Line_Type
  70
32
  10
2107097.18
  20
2887795.74
  30
3018
  0
VERTEX
  8
Unknown_Line_Type
  70
32
  10
2107100.21
  20
2887800.40
  30
3018
  0
VERTEX
  8
Unknown_Line_Type
  70
32
  10
2107105.06
  20
2887798.55
  30
3018
  0
VERTEX
  8
Unknown_Line_Type
  70
32
  10
2107110.35
  20
2887797.17
  30
3018
  0
VERTEX
  8
Unknown_Line_Type
  70
32
  10
2107111.26
  20
2887797.33
  30
3018
  0
VERTEX
  8
Unknown_Line_Type
  70
32
  10
2107115.28
  20
2887796.71
  30
3018
  0
VERTEX
  8
Unknown_Line_Type
  70
32
  10
2107126.39
  20
2887797.77
  30
3018
  0
VERTEX
  8
Unknown_Line_Type
  70
32
  10
2107130.46
  20
2887796.69
  30
3018
  0
VERTEX
  8
Unknown_Line_Type
  70
32
  10
2107134.38
  20
2887796.57
  30
3018
  0
VERTEX
  8
Unknown_Line_Type
  70
32
  10
2107136.12
  20
2887794.43
  30
3018
  0
VERTEX
  8
Unknown_Line_Type
  70
32
  10
2107138.57
  20
2887796.15
  30
3018
  0
VERTEX
  8
Unknown_Line_Type
  70
32
  10
2107140.53
  20
2887799.58
  30
3018
  0
VERTEX
  8
Unknown_Line_Type
  70
32
  10
2107142.70
  20
2887802.73
  30
3018
  0
VERTEX
  8
Unknown_Line_Type
  70
32
  10
2107139.32
  20
2887805.71
  30
3018
  0
VERTEX
  8
Unknown_Line_Type
  70
32
  10
2107135.17
  20
2887806.96
  30
3018
  0
VERTEX
  8
Unknown_Line_Type
  70
32
  10
2107125.88
  20
2887811.38
  30
3018
  0
VERTEX
  8
Unknown_Line_Type
  70
32
  10
2107120.47
  20
2887808.46
  30
3018
  0
VERTEX
  8
Unknown_Line_Type
  70
32
  10
2107114.77
  20
2887811.35
  30
3018
  0
VERTEX
  8
Unknown_Line_Type
  70
32
  10
2107105.88
  20
2887813.01
  30
3018
  0
VERTEX
  8
Unknown_Line_Type
  70
32
  10
2107105.55
  20
2887812.49
  30
3018
  0
VERTEX
  8
Unknown_Line_Type
  70
32
  10
2107104.84
  20
2887811.27
  30
3018
  0
VERTEX
  8
Unknown_Line_Type
  70
32
  10
2107100.70
  20
2887811.73
  30
3018
  0
VERTEX
  8
Unknown_Line_Type
  70
32
  10
2107099.61
  20
2887816.77
  30
3018
  0
VERTEX
  8
Unknown_Line_Type
  70
32
  10
2107104.35
  20
2887819.22
  30
3018
  0
VERTEX
  8
Unknown_Line_Type
  70
32
  10
2107111.61
  20
2887819.58
  30
3018
  0
VERTEX
  8
Unknown_Line_Type
  70
32
  10
2107112.91
  20
2887820.41
  30
3018
  0
VERTEX
  8
Unknown_Line_Type
  70
32
  10
2107120.07
  20
2887819.94
  30
3018
  0
VERTEX
  8
Unknown_Line_Type
  70
32
  10
2107122.90
  20
2887822.18
  30
3018
  0
VERTEX
  8
Unknown_Line_Type
  70
32
  10
2107128.06
  20
2887835.92
  30
3018
  0
VERTEX
  8
Unknown_Line_Type
  70
32
  10
2107123.84
  20
2887848.07
  30
3018
  0
VERTEX
  8
Unknown_Line_Type
  70
32
  10
2107120.51
  20
2887855.77
  30
3018
  0
VERTEX
  8
Unknown_Line_Type
  70
32
  10
2107117.20
  20
2887859.43
  30
3018
  0
VERTEX
  8
Unknown_Line_Type
  70
32
  10
2107118.44
  20
2887862.78
  30
3018
  0
VERTEX
  8
Unknown_Line_Type
  70
32
  10
2107121.81
  20
2887870.01
  30
3018
  0
VERTEX
  8
Unknown_Line_Type
  70
32
  10
2107116.16
  20
2887874.33
  30
3018
  0
VERTEX
  8
Unknown_Line_Type
  70
32
  10
2107126.75
  20
2887881.54
  30
3018
  0
VERTEX
  8
Unknown_Line_Type
  70
32
  10
2107131.84
  20
2887877.57
  30
3018
  0
VERTEX
  8
Unknown_Line_Type
  70
32
  10
2107133.21
  20
2887876.51
  30
3018
  0
VERTEX
  8
Unknown_Line_Type
  70
32
  10
2107136.60
  20
2887871.74
  30
3018
  0
VERTEX
  8
Unknown_Line_Type
  70
32
  10
2107139.23
  20
2887876.30
  30
3018
  0
VERTEX
  8
Unknown_Line_Type
  70
32
  10
2107139.09
  20
2887879.22
  30
3018
  0
VERTEX
  8
Unknown_Line_Type
  70
32
  10
2107136.97
  20
2887881.98
  30
3018
  0
VERTEX
  8
Unknown_Line_Type
  70
32
  10
2107136.99
  20
2887884.97
  30
3018
  0
VERTEX
  8
Unknown_Line_Type
  70
32
  10
2107139.06
  20
2887894.27
  30
3018
  0
VERTEX
  8
Unknown_Line_Type
  70
32
  10
2107139.15
  20
2887900.50
  30
3018
  0
VERTEX
  8
Unknown_Line_Type
  70
32
  10
2107135.97
  20
2887906.82
  30
3018
  0
VERTEX
  8
Unknown_Line_Type
  70
32
  10
2107137.67
  20
2887907.62
  30
3018
  0
VERTEX
  8
Unknown_Line_Type
  70
32
  10
2107139.08
  20
2887913.82
  30
3018
  0
VERTEX
  8
Unknown_Line_Type
  70
32
  10
2107140.50
  20
2887916.17
  30
3018
  0
VERTEX
  8
Unknown_Line_Type
  70
32
  10
2107143.54
  20
2887911.61
  30
3018
  0
VERTEX
  8
Unknown_Line_Type
  70
32
  10
2107146.05
  20
2887909.98
  30
3018
  0
VERTEX
  8
Unknown_Line_Type
  70
32
  10
2107154.42
  20
2887909.80
  30
3018
  0
VERTEX
  8
Unknown_Line_Type
  70
32
  10
2107156.01
  20
2887909.41
  30
3018
  0
VERTEX
  8
Unknown_Line_Type
  70
32
  10
2107161.48
  20
2887909.47
  30
3018
  0
VERTEX
  8
Unknown_Line_Type
  70
32
  10
2107172.27
  20
2887915.13
  30
3018
  0
VERTEX
  8
Unknown_Line_Type
  70
32
  10
2107172.91
  20
2887923.48
  30
3018
  0
VERTEX
  8
Unknown_Line_Type
  70
32
  10
2107182.41
  20
2887923.15
  30
3018
  0
VERTEX
  8
Unknown_Line_Type
  70
32
  10
2107185.81
  20
2887926.20
  30
3018
  0
VERTEX
  8
Unknown_Line_Type
  70
32
  10
2107189.47
  20
2887929.06
  30
3018
  0
VERTEX
  8
Unknown_Line_Type
  70
32
  10
2107195.50
  20
2887932.41
  30
3018
  0
VERTEX
  8
Unknown_Line_Type
  70
32
  10
2107205.05
  20
2887937.56
  30
3018
  0
VERTEX
  8
Unknown_Line_Type
  70
32
  10
2107205.34
  20
2887942.19
  30
3018
  0
VERTEX
  8
Unknown_Line_Type
  70
32
  10
2107213.39
  20
2887941.41
  30
3018
  0
VERTEX
  8
Unknown_Line_Type
  70
32
  10
2107218.95
  20
2887941.93
  30
3018
  0
VERTEX
  8
Unknown_Line_Type
  70
32
  10
2107224.15
  20
2887945.22
  30
3018
  0
VERTEX
  8
Unknown_Line_Type
  70
32
  10
2107229.20
  20
2887946.12
  30
3018
  0
VERTEX
  8
Unknown_Line_Type
  70
32
  10
2107230.38
  20
2887946.61
  30
3018
  0
VERTEX
  8
Unknown_Line_Type
  70
32
  10
2107232.51
  20
2887947.60
  30
3018
  0
VERTEX
  8
Unknown_Line_Type
  70
32
  10
2107236.57
  20
2887945.00
  30
3018
  0
VERTEX
  8
Unknown_Line_Type
  70
32
  10
2107242.14
  20
2887944.87
  30
3018
  0
VERTEX
  8
Unknown_Line_Type
  70
32
  10
2107246.65
  20
2887937.57
  30
3018
  0
VERTEX
  8
Unknown_Line_Type
  70
32
  10
2107251.30
  20
2887930.10
  30
3018
  0
VERTEX
  8
Unknown_Line_Type
  70
32
  10
2107255.07
  20
2887929.01
  30
3018
  0
VERTEX
  8
Unknown_Line_Type
  70
32
  10
2107258.66
  20
2887931.48
  30
3018
  0
VERTEX
  8
Unknown_Line_Type
  70
32
  10
2107265.10
  20
2887933.99
  30
3018
  0
VERTEX
  8
Unknown_Line_Type
  70
32
  10
2107275.48
  20
2887938.68
  30
3018
  0
VERTEX
  8
Unknown_Line_Type
  70
32
  10
2107280.73
  20
2887935.29
  30
3018
  0
VERTEX
  8
Unknown_Line_Type
  70
32
  10
2107287.16
  20
2887926.70
  30
3018
  0
VERTEX
  8
Unknown_Line_Type
  70
32
  10
2107288.89
  20
2887927.02
  30
3018
  0
VERTEX
  8
Unknown_Line_Type
  70
32
  10
2107295.02
  20
2887922.79
  30
3018
  0
VERTEX
  8
Unknown_Line_Type
  70
32
  10
2107301.52
  20
2887916.71
  30
3018
  0
VERTEX
  8
Unknown_Line_Type
  70
32
  10
2107311.01
  20
2887906.94
  30
3018
  0
VERTEX
  8
Unknown_Line_Type
  70
32
  10
2107313.10
  20
2887900.41
  30
3018
  0
VERTEX
  8
Unknown_Line_Type
  70
32
  10
2107320.79
  20
2887905.53
  30
3018
  0
VERTEX
  8
Unknown_Line_Type
  70
32
  10
2107327.71
  20
2887913.48
  30
3018
  0
VERTEX
  8
Unknown_Line_Type
  70
32
  10
2107329.21
  20
2887909.16
  30
3018
  0
VERTEX
  8
Unknown_Line_Type
  70
32
  10
2107332.56
  20
2887901.30
  30
3018
  0
VERTEX
  8
Unknown_Line_Type
  70
32
  10
2107336.11
  20
2887897.96
  30
3018
  0
VERTEX
  8
Unknown_Line_Type
  70
32
  10
2107337.06
  20
2887898.86
  30
3018
  0
VERTEX
  8
Unknown_Line_Type
  70
32
  10
2107337.72
  20
2887899.83
  30
3018
  0
VERTEX
  8
Unknown_Line_Type
  70
32
  10
2107341.54
  20
2887911.32
  30
3018
  0
VERTEX
  8
Unknown_Line_Type
  70
32
  10
2107347.96
  20
2887907.91
  30
3018
  0
VERTEX
  8
Unknown_Line_Type
  70
32
  10
2107351.78
  20
2887907.80
  30
3018
  0
VERTEX
  8
Unknown_Line_Type
  70
32
  10
2107353.46
  20
2887903.13
  30
3018
  0
VERTEX
  8
Unknown_Line_Type
  70
32
  10
2107361.49
  20
2887913.96
  30
3018
  0
VERTEX
  8
Unknown_Line_Type
  70
32
  10
2107364.47
  20
2887917.69
  30
3018
  0
VERTEX
  8
Unknown_Line_Type
  70
32
  10
2107371.49
  20
2887916.70
  30
3018
  0
VERTEX
  8
Unknown_Line_Type
  70
32
  10
2107378.83
  20
2887911.90
  30
3018
  0
VERTEX
  8
Unknown_Line_Type
  70
32
  10
2107382.13
  20
2887912.70
  30
3018
  0
SEQEND
  8
Unknown_Line_Type
  0
POLYLINE
  8
Unknown_Line_Type
  70
8
  66
1
 62
0
 39
0
  0
VERTEX
  8
Unknown_Line_Type
  70
32
  10
2107522.11
  20
2887735.94
  30
3018
  0
VERTEX
  8
Unknown_Line_Type
  70
32
  10
2107514.58
  20
2887727.75
  30
3018
  0
VERTEX
  8
Unknown_Line_Type
  70
32
  10
2107510.39
  20
2887724.61
  30
3018
  0
VERTEX
  8
Unknown_Line_Type
  70
32
  10
2107509.25
  20
2887721.96
  30
3018
  0
VERTEX
  8
Unknown_Line_Type
  70
32
  10
2107507.46
  20
2887716.34
  30
3018
  0
VERTEX
  8
Unknown_Line_Type
  70
32
  10
2107499.57
  20
2887710.76
  30
3018
  0
VERTEX
  8
Unknown_Line_Type
  70
32
  10
2107510.28
  20
2887702.08
  30
3018
  0
VERTEX
  8
Unknown_Line_Type
  70
32
  10
2107513.27
  20
2887695.51
  30
3018
  0
VERTEX
  8
Unknown_Line_Type
  70
32
  10
2107516.29
  20
2887694.67
  30
3018
  0
VERTEX
  8
Unknown_Line_Type
  70
32
  10
2107521.07
  20
2887690.55
  30
3018
  0
VERTEX
  8
Unknown_Line_Type
  70
32
  10
2107527.62
  20
2887683.77
  30
3018
  0
VERTEX
  8
Unknown_Line_Type
  70
32
  10
2107530.60
  20
2887679.99
  30
3018
  0
VERTEX
  8
Unknown_Line_Type
  70
32
  10
2107535.56
  20
2887678.58
  30
3018
  0
VERTEX
  8
Unknown_Line_Type
  70
32
  10
2107544.27
  20
2887675.43
  30
3018
  0
VERTEX
  8
Unknown_Line_Type
  70
32
  10
2107544.98
  20
2887675.67
  30
3018
  0
VERTEX
  8
Unknown_Line_Type
  70
32
  10
2107555.41
  20
2887664.18
  30
3018
  0
VERTEX
  8
Unknown_Line_Type
  70
32
  10
2107554.99
  20
2887662.99
  30
3018
  0
VERTEX
  8
Unknown_Line_Type
  70
32
  10
2107557.03
  20
2887657.24
  30
3018
  0
VERTEX
  8
Unknown_Line_Type
  70
32
  10
2107563.70
  20
2887652.41
  30
3018
  0
VERTEX
  8
Unknown_Line_Type
  70
32
  10
2107569.45
  20
2887652.19
  30
3018
  0
VERTEX
  8
Unknown_Line_Type
  70
32
  10
2107578.20
  20
2887651.31
  30
3018
  0
VERTEX
  8
Unknown_Line_Type
  70
32
  10
2107584.13
  20
2887651.10
  30
3018
  0
SEQEND
  8
Unknown_Line_Type
  0
POLYLINE
  8
Unknown_Line_Type
  70
8
  66
1
 62
0
 39
0
  0
VERTEX
  8
Unknown_Line_Type
  70
32
  10
2107592.68
  20
2887639.41
  30
3018
  0
VERTEX
  8
Unknown_Line_Type
  70
32
  10
2107593.37
  20
2887635.06
  30
3018
  0
VERTEX
  8
Unknown_Line_Type
  70
32
  10
2107593.38
  20
2887635.00
  30
3018
  0
SEQEND
  8
Unknown_Line_Type
  0
POLYLINE
  8
Unknown_Line_Type
  70
8
  66
1
 62
0
 39
0
  0
VERTEX
  8
Unknown_Line_Type
  70
32
  10
2106886.50
  20
2887706.01
  30
3018
  0
VERTEX
  8
Unknown_Line_Type
  70
32
  10
2106887.91
  20
2887716.22
  30
3018
  0
VERTEX
  8
Unknown_Line_Type
  70
32
  10
2106888.91
  20
2887723.63
  30
3018
  0
VERTEX
  8
Unknown_Line_Type
  70
32
  10
2106898.43
  20
2887726.22
  30
3018
  0
VERTEX
  8
Unknown_Line_Type
  70
32
  10
2106904.91
  20
2887734.66
  30
3018
  0
VERTEX
  8
Unknown_Line_Type
  70
32
  10
2106912.49
  20
2887730.94
  30
3018
  0
VERTEX
  8
Unknown_Line_Type
  70
32
  10
2106910.07
  20
2887723.74
  30
3018
  0
VERTEX
  8
Unknown_Line_Type
  70
32
  10
2106914.21
  20
2887721.00
  30
3018
  0
VERTEX
  8
Unknown_Line_Type
  70
32
  10
2106913.02
  20
2887716.00
  30
3018
  0
VERTEX
  8
Unknown_Line_Type
  70
32
  10
2106907.33
  20
2887702.44
  30
3018
  0
VERTEX
  8
Unknown_Line_Type
  70
32
  10
2106909.71
  20
2887697.38
  30
3018
  0
VERTEX
  8
Unknown_Line_Type
  70
32
  10
2106918.45
  20
2887694.95
  30
3018
  0
VERTEX
  8
Unknown_Line_Type
  70
32
  10
2106919.74
  20
2887693.23
  30
3018
  0
VERTEX
  8
Unknown_Line_Type
  70
32
  10
2106920.02
  20
2887688.86
  30
3018
  0
VERTEX
  8
Unknown_Line_Type
  70
32
  10
2106914.02
  20
2887689.47
  30
3018
  0
VERTEX
  8
Unknown_Line_Type
  70
32
  10
2106905.20
  20
2887688.89
  30
3018
  0
VERTEX
  8
Unknown_Line_Type
  70
32
  10
2106904.38
  20
2887687.90
  30
3018
  0
VERTEX
  8
Unknown_Line_Type
  70
32
  10
2106901.47
  20
2887686.17
  30
3018
  0
VERTEX
  8
Unknown_Line_Type
  70
32
  10
2106893.92
  20
2887680.34
  30
3018
  0
VERTEX
  8
Unknown_Line_Type
  70
32
  10
2106886.80
  20
2887687.05
  30
3018
  0
VERTEX
  8
Unknown_Line_Type
  70
32
  10
2106888.48
  20
2887693.14
  30
3018
  0
VERTEX
  8
Unknown_Line_Type
  70
32
  10
2106886.51
  20
2887699.17
  30
3018
  0
VERTEX
  8
Unknown_Line_Type
  70
32
  10
2106884.78
  20
2887700.47
  30
3018
  0
VERTEX
  8
Unknown_Line_Type
  70
32
  10
2106886.50
  20
2887706.01
  30
3018
  0
SEQEND
  8
Unknown_Line_Type
  0
POLYLINE
  8
Unknown_Line_Type
  70
8
  66
1
 62
0
 39
0
  0
VERTEX
  8
Unknown_Line_Type
  70
32
  10
2107390.19
  20
2887663.45
  30
3018
  0
VERTEX
  8
Unknown_Line_Type
  70
32
  10
2107391.52
  20
2887664.78
  30
3018
  0
VERTEX
  8
Unknown_Line_Type
  70
32
  10
2107393.00
  20
2887665.22
  30
3018
  0
VERTEX
  8
Unknown_Line_Type
  70
32
  10
2107395.07
  20
2887666.55
  30
3018
  0
VERTEX
  8
Unknown_Line_Type
  70
32
  10
2107396.33
  20
2887669.47
  30
3018
  0
VERTEX
  8
Unknown_Line_Type
  70
32
  10
2107397.42
  20
2887674.07
  30
3018
  0
VERTEX
  8
Unknown_Line_Type
  70
32
  10
2107405.03
  20
2887672.84
  30
3018
  0
VERTEX
  8
Unknown_Line_Type
  70
32
  10
2107407.54
  20
2887670.14
  30
3018
  0
VERTEX
  8
Unknown_Line_Type
  70
32
  10
2107416.26
  20
2887673.25
  30
3018
  0
VERTEX
  8
Unknown_Line_Type
  70
32
  10
2107410.83
  20
2887677.14
  30
3018
  0
VERTEX
  8
Unknown_Line_Type
  70
32
  10
2107406.03
  20
2887681.14
  30
3018
  0
VERTEX
  8
Unknown_Line_Type
  70
32
  10
2107399.51
  20
2887684.49
  30
3018
  0
VERTEX
  8
Unknown_Line_Type
  70
32
  10
2107392.37
  20
2887682.62
  30
3018
  0
VERTEX
  8
Unknown_Line_Type
  70
32
  10
2107392.51
  20
2887679.35
  30
3018
  0
VERTEX
  8
Unknown_Line_Type
  70
32
  10
2107390.96
  20
2887678.95
  30
3018
  0
VERTEX
  8
Unknown_Line_Type
  70
32
  10
2107389.95
  20
2887674.68
  30
3018
  0
VERTEX
  8
Unknown_Line_Type
  70
32
  10
2107389.26
  20
2887671.19
  30
3018
  0
VERTEX
  8
Unknown_Line_Type
  70
32
  10
2107388.36
  20
2887671.09
  30
3018
  0
VERTEX
  8
Unknown_Line_Type
  70
32
  10
2107384.37
  20
2887667.13
  30
3018
  0
VERTEX
  8
Unknown_Line_Type
  70
32
  10
2107390.19
  20
2887663.45
  30
3018
  0
SEQEND
  8
Unknown_Line_Type
  0
POLYLINE
  8
Unknown_Line_Type
  70
8
  66
1
 62
0
 39
0
  0
VERTEX
  8
Unknown_Line_Type
  70
32
  10
2107188.80
  20
2887738.52
  30
3018
  0
VERTEX
  8
Unknown_Line_Type
  70
32
  10
2107183.22
  20
2887730.70
  30
3018
  0
VERTEX
  8
Unknown_Line_Type
  70
32
  10
2107180.08
  20
2887730.57
  30
3018
  0
VERTEX
  8
Unknown_Line_Type
  70
32
  10
2107177.67
  20
2887732.78
  30
3018
  0
VERTEX
  8
Unknown_Line_Type
  70
32
  10
2107177.35
  20
2887734.86
  30
3018
  0
VERTEX
  8
Unknown_Line_Type
  70
32
  10
2107177.13
  20
2887746.15
  30
3018
  0
VERTEX
  8
Unknown_Line_Type
  70
32
  10
2107168.69
  20
2887747.75
  30
3018
  0
VERTEX
  8
Unknown_Line_Type
  70
32
  10
2107163.23
  20
2887751.64
  30
3018
  0
VERTEX
  8
Unknown_Line_Type
  70
32
  10
2107154.25
  20
2887755.90
  30
3018
  0
VERTEX
  8
Unknown_Line_Type
  70
32
  10
2107150.86
  20
2887753.93
  30
3018
  0
VERTEX
  8
Unknown_Line_Type
  70
32
  10
2107143.71
  20
2887748.75
  30
3018
  0
VERTEX
  8
Unknown_Line_Type
  70
32
  10
2107132.90
  20
2887747.66
  30
3018
  0
VERTEX
  8
Unknown_Line_Type
  70
32
  10
2107130.42
  20
2887748.86
  30
3018
  0
VERTEX
  8
Unknown_Line_Type
  70
32
  10
2107124.48
  20
2887748.64
  30
3018
  0
VERTEX
  8
Unknown_Line_Type
  70
32
  10
2107117.24
  20
2887751.68
  30
3018
  0
VERTEX
  8
Unknown_Line_Type
  70
32
  10
2107110.44
  20
2887752.76
  30
3018
  0
VERTEX
  8
Unknown_Line_Type
  70
32
  10
2107100.96
  20
2887760.86
  30
3018
  0
VERTEX
  8
Unknown_Line_Type
  70
32
  10
2107103.04
  20
2887768.47
  30
3018
  0
VERTEX
  8
Unknown_Line_Type
  70
32
  10
2107105.69
  20
2887769.08
  30
3018
  0
VERTEX
  8
Unknown_Line_Type
  70
32
  10
2107111.55
  20
2887777.62
  30
3018
  0
VERTEX
  8
Unknown_Line_Type
  70
32
  10
2107110.58
  20
2887784.91
  30
3018
  0
VERTEX
  8
Unknown_Line_Type
  70
32
  10
2107111.77
  20
2887789.60
  30
3018
  0
VERTEX
  8
Unknown_Line_Type
  70
32
  10
2107112.53
  20
2887791.94
  30
3018
  0
VERTEX
  8
Unknown_Line_Type
  70
32
  10
2107119.01
  20
2887790.80
  30
3018
  0
VERTEX
  8
Unknown_Line_Type
  70
32
  10
2107119.35
  20
2887786.98
  30
3018
  0
VERTEX
  8
Unknown_Line_Type
  70
32
  10
2107122.80
  20
2887778.96
  30
3018
  0
VERTEX
  8
Unknown_Line_Type
  70
32
  10
2107121.34
  20
2887771.66
  30
3018
  0
VERTEX
  8
Unknown_Line_Type
  70
32
  10
2107121.40
  20
2887764.27
  30
3018
  0
VERTEX
  8
Unknown_Line_Type
  70
32
  10
2107127.75
  20
2887760.27
  30
3018
  0
VERTEX
  8
Unknown_Line_Type
  70
32
  10
2107134.26
  20
2887756.91
  30
3018
  0
VERTEX
  8
Unknown_Line_Type
  70
32
  10
2107144.33
  20
2887762.07
  30
3018
  0
VERTEX
  8
Unknown_Line_Type
  70
32
  10
2107147.62
  20
2887763.30
  30
3018
  0
VERTEX
  8
Unknown_Line_Type
  70
32
  10
2107151.28
  20
2887763.54
  30
3018
  0
VERTEX
  8
Unknown_Line_Type
  70
32
  10
2107154.64
  20
2887761.82
  30
3018
  0
VERTEX
  8
Unknown_Line_Type
  70
32
  10
2107156.45
  20
2887760.03
  30
3018
  0
VERTEX
  8
Unknown_Line_Type
  70
32
  10
2107166.95
  20
2887756.76
  30
3018
  0
VERTEX
  8
Unknown_Line_Type
  70
32
  10
2107173.65
  20
2887759.74
  30
3018
  0
VERTEX
  8
Unknown_Line_Type
  70
32
  10
2107174.15
  20
2887760.21
  30
3018
  0
VERTEX
  8
Unknown_Line_Type
  70
32
  10
2107168.06
  20
2887767.88
  30
3018
  0
VERTEX
  8
Unknown_Line_Type
  70
32
  10
2107164.90
  20
2887770.49
  30
3018
  0
VERTEX
  8
Unknown_Line_Type
  70
32
  10
2107157.61
  20
2887772.70
  30
3018
  0
VERTEX
  8
Unknown_Line_Type
  70
32
  10
2107153.33
  20
2887773.16
  30
3018
  0
VERTEX
  8
Unknown_Line_Type
  70
32
  10
2107154.22
  20
2887778.05
  30
3018
  0
VERTEX
  8
Unknown_Line_Type
  70
32
  10
2107159.11
  20
2887783.33
  30
3018
  0
VERTEX
  8
Unknown_Line_Type
  70
32
  10
2107162.91
  20
2887781.34
  30
3018
  0
VERTEX
  8
Unknown_Line_Type
  70
32
  10
2107168.58
  20
2887781.78
  30
3018
  0
VERTEX
  8
Unknown_Line_Type
  70
32
  10
2107169.84
  20
2887782.79
  30
3018
  0
VERTEX
  8
Unknown_Line_Type
  70
32
  10
2107176.45
  20
2887787.82
  30
3018
  0
VERTEX
  8
Unknown_Line_Type
  70
32
  10
2107174.48
  20
2887791.20
  30
3018
  0
VERTEX
  8
Unknown_Line_Type
  70
32
  10
2107169.63
  20
2887792.21
  30
3018
  0
VERTEX
  8
Unknown_Line_Type
  70
32
  10
2107165.57
  20
2887796.06
  30
3018
  0
VERTEX
  8
Unknown_Line_Type
  70
32
  10
2107158.32
  20
2887802.75
  30
3018
  0
VERTEX
  8
Unknown_Line_Type
  70
32
  10
2107153.81
  20
2887808.92
  30
3018
  0
VERTEX
  8
Unknown_Line_Type
  70
32
  10
2107153.64
  20
2887809.22
  30
3018
  0
VERTEX
  8
Unknown_Line_Type
  70
32
  10
2107149.91
  20
2887810.63
  30
3018
  0
VERTEX
  8
Unknown_Line_Type
  70
32
  10
2107154.82
  20
2887816.94
  30
3018
  0
VERTEX
  8
Unknown_Line_Type
  70
32
  10
2107157.87
  20
2887820.76
  30
3018
  0
VERTEX
  8
Unknown_Line_Type
  70
32
  10
2107159.35
  20
2887810.58
  30
3018
  0
VERTEX
  8
Unknown_Line_Type
  70
32
  10
2107159.53
  20
2887810.26
  30
3018
  0
VERTEX
  8
Unknown_Line_Type
  70
32
  10
2107168.15
  20
2887803.66
  30
3018
  0
VERTEX
  8
Unknown_Line_Type
  70
32
  10
2107176.43
  20
2887800.76
  30
3018
  0
VERTEX
  8
Unknown_Line_Type
  70
32
  10
2107183.10
  20
2887799.92
  30
3018
  0
VERTEX
  8
Unknown_Line_Type
  70
32
  10
2107188.18
  20
2887794.74
  30
3018
  0
VERTEX
  8
Unknown_Line_Type
  70
32
  10
2107186.02
  20
2887793.15
  30
3018
  0
VERTEX
  8
Unknown_Line_Type
  70
32
  10
2107189.42
  20
2887787.88
  30
3018
  0
VERTEX
  8
Unknown_Line_Type
  70
32
  10
2107190.33
  20
2887782.92
  30
3018
  0
VERTEX
  8
Unknown_Line_Type
  70
32
  10
2107189.04
  20
2887781.91
  30
3018
  0
VERTEX
  8
Unknown_Line_Type
  70
32
  10
2107178.12
  20
2887772.68
  30
3018
  0
VERTEX
  8
Unknown_Line_Type
  70
32
  10
2107181.78
  20
2887763.31
  30
3018
  0
VERTEX
  8
Unknown_Line_Type
  70
32
  10
2107182.00
  20
2887761.64
  30
3018
  0
VERTEX
  8
Unknown_Line_Type
  70
32
  10
2107182.69
  20
2887758.25
  30
3018
  0
VERTEX
  8
Unknown_Line_Type
  70
32
  10
2107185.84
  20
2887753.39
  30
3018
  0
VERTEX
  8
Unknown_Line_Type
  70
32
  10
2107187.89
  20
2887749.84
  30
3018
  0
VERTEX
  8
Unknown_Line_Type
  70
32
  10
2107191.19
  20
2887744.48
  30
3018
  0
VERTEX
  8
Unknown_Line_Type
  70
32
  10
2107192.94
  20
2887742.87
  30
3018
  0
VERTEX
  8
Unknown_Line_Type
  70
32
  10
2107195.04
  20
2887738.22
  30
3018
  0
VERTEX
  8
Unknown_Line_Type
  70
32
  10
2107188.80
  20
2887738.52
  30
3018
  0
SEQEND
  8
Unknown_Line_Type
  0
POLYLINE
  8
Unknown_Line_Type
  70
8
  66
1
 62
0
 39
0
  0
VERTEX
  8
Unknown_Line_Type
  70
32
  10
2107562.55
  20
2887680.63
  30
3018
  0
VERTEX
  8
Unknown_Line_Type
  70
32
  10
2107557.35
  20
2887670.83
  30
3018
  0
VERTEX
  8
Unknown_Line_Type
  70
32
  10
2107552.08
  20
2887680.48
  30
3018
  0
VERTEX
  8
Unknown_Line_Type
  70
32
  10
2107555.50
  20
2887683.25
  30
3018
  0
VERTEX
  8
Unknown_Line_Type
  70
32
  10
2107562.20
  20
2887681.11
  30
3018
  0
SEQEND
  8
Unknown_Line_Type
  0
ENDSEC
  0
EOF
