  0
SECTION
  2
HEADER
  9
$ACADVER
  1
AC1009
  9
$LUNITS
  70
2
  9
$LIMMIN
  10
2097826.00
  20
2887635.00
  9
$LIMMAX
  10
2106028.00
  20
2895837.00
  9
$EXTMIN
  10
2097826.00
  20
2887635.00
  9
$EXTMAX
  10
2106028.00
  20
2895837.00
  999
Created by Global Mapper
  999
Projection: State Plane Coordinate System
  999
Datum: NAD83
  999
Ground Units: feet
  999
ZONE: 5004
  999
STATE PLANE SCALE FACTOR: 1
  999
EXTRA FALSE EASTING (m): 0
  999
EXTRA FALSE NORTHING (m): 0
  999
EXTRA SCALE CENTER EASTING (m): 0
  999
EXTRA SCALE CENTER NORTHING (m): 0
  0
ENDSEC
  0
SECTION
  2
BLOCKS
  0
BLOCK
  8
FeatureAttribs
  70
0
  2
FEATURE
  3
FEATURE
  10
0.00000000
  20
0.00000000
  0
ATTDEF
  8
FeatureAttribs
  70
0
  1
 
  2
NAME
  3
NAME
  10
0.00000000
  20
0.00000000
  40
1.00000000
  0
ENDBLK
  0
ENDSEC
  0
SECTION
  2
ENTITIES
  0
POLYLINE
  8
Unknown_Line_Type
  70
8
  66
1
 62
0
 39
0
  0
VERTEX
  8
Unknown_Line_Type
  70
32
  10
2105602.91
  20
2887635.00
  30
2978
  0
VERTEX
  8
Unknown_Line_Type
  70
32
  10
2105602.91
  20
2887635.00
  30
2978
  0
SEQEND
  8
Unknown_Line_Type
  0
POLYLINE
  8
Unknown_Line_Type
  70
8
  66
1
 62
0
 39
0
  0
VERTEX
  8
Unknown_Line_Type
  70
32
  10
2105646.45
  20
2887635.00
  30
2980
  0
VERTEX
  8
Unknown_Line_Type
  70
32
  10
2105646.45
  20
2887635.00
  30
2980
  0
SEQEND
  8
Unknown_Line_Type
  0
POLYLINE
  8
Unknown_Line_Type
  70
8
  66
1
 62
0
 39
0
  0
VERTEX
  8
Unknown_Line_Type
  70
32
  10
2105701.84
  20
2887635.00
  30
2982
  0
VERTEX
  8
Unknown_Line_Type
  70
32
  10
2105701.84
  20
2887635.00
  30
2982
  0
SEQEND
  8
Unknown_Line_Type
  0
POLYLINE
  8
Unknown_Line_Type
  70
8
  66
1
 62
0
 39
0
  0
VERTEX
  8
Unknown_Line_Type
  70
32
  10
2105745.49
  20
2887635.00
  30
2984
  0
VERTEX
  8
Unknown_Line_Type
  70
32
  10
2105745.49
  20
2887635.00
  30
2984
  0
SEQEND
  8
Unknown_Line_Type
  0
POLYLINE
  8
Unknown_Line_Type
  70
8
  66
1
 62
0
 39
0
  0
VERTEX
  8
Unknown_Line_Type
  70
32
  10
2105791.60
  20
2887635.00
  30
2986
  0
VERTEX
  8
Unknown_Line_Type
  70
32
  10
2105791.60
  20
2887635.00
  30
2986
  0
SEQEND
  8
Unknown_Line_Type
  0
POLYLINE
  8
Unknown_Line_Type
  70
8
  66
1
 62
0
 39
0
  0
VERTEX
  8
Unknown_Line_Type
  70
32
  10
2105887.46
  20
2887635.00
  30
2988
  0
VERTEX
  8
Unknown_Line_Type
  70
32
  10
2105887.46
  20
2887635.00
  30
2988
  0
SEQEND
  8
Unknown_Line_Type
  0
POLYLINE
  8
Unknown_Line_Type
  70
8
  66
1
 62
0
 39
0
  0
VERTEX
  8
Unknown_Line_Type
  70
32
  10
2105965.31
  20
2887635.00
  30
2990
  0
VERTEX
  8
Unknown_Line_Type
  70
32
  10
2105965.31
  20
2887635.00
  30
2990
  0
SEQEND
  8
Unknown_Line_Type
  0
POLYLINE
  8
Unknown_Line_Type
  70
8
  66
1
 62
0
 39
0
  0
VERTEX
  8
Unknown_Line_Type
  70
32
  10
2105602.91
  20
2887635.00
  30
2978
  0
VERTEX
  8
Unknown_Line_Type
  70
32
  10
2105601.51
  20
2887640.70
  30
2978
  0
VERTEX
  8
Unknown_Line_Type
  70
32
  10
2105600.27
  20
2887646.17
  30
2978
  0
VERTEX
  8
Unknown_Line_Type
  70
32
  10
2105609.08
  20
2887654.13
  30
2978
  0
VERTEX
  8
Unknown_Line_Type
  70
32
  10
2105611.66
  20
2887653.88
  30
2978
  0
VERTEX
  8
Unknown_Line_Type
  70
32
  10
2105609.70
  20
2887658.62
  30
2978
  0
VERTEX
  8
Unknown_Line_Type
  70
32
  10
2105608.26
  20
2887664.77
  30
2978
  0
VERTEX
  8
Unknown_Line_Type
  70
32
  10
2105610.33
  20
2887671.79
  30
2978
  0
VERTEX
  8
Unknown_Line_Type
  70
32
  10
2105616.01
  20
2887675.57
  30
2978
  0
VERTEX
  8
Unknown_Line_Type
  70
32
  10
2105616.46
  20
2887677.26
  30
2978
  0
SEQEND
  8
Unknown_Line_Type
  0
POLYLINE
  8
Unknown_Line_Type
  70
8
  66
1
 62
0
 39
0
  0
VERTEX
  8
Unknown_Line_Type
  70
32
  10
2105646.45
  20
2887635.00
  30
2980
  0
VERTEX
  8
Unknown_Line_Type
  70
32
  10
2105647.40
  20
2887635.84
  30
2980
  0
VERTEX
  8
Unknown_Line_Type
  70
32
  10
2105651.32
  20
2887644.71
  30
2980
  0
VERTEX
  8
Unknown_Line_Type
  70
32
  10
2105650.93
  20
2887657.38
  30
2980
  0
VERTEX
  8
Unknown_Line_Type
  70
32
  10
2105657.55
  20
2887666.64
  30
2980
  0
VERTEX
  8
Unknown_Line_Type
  70
32
  10
2105657.61
  20
2887667.92
  30
2980
  0
VERTEX
  8
Unknown_Line_Type
  70
32
  10
2105660.67
  20
2887672.06
  30
2980
  0
VERTEX
  8
Unknown_Line_Type
  70
32
  10
2105660.22
  20
2887677.70
  30
2980
  0
VERTEX
  8
Unknown_Line_Type
  70
32
  10
2105657.08
  20
2887691.28
  30
2980
  0
VERTEX
  8
Unknown_Line_Type
  70
32
  10
2105665.38
  20
2887694.71
  30
2980
  0
VERTEX
  8
Unknown_Line_Type
  70
32
  10
2105668.31
  20
2887697.43
  30
2980
  0
VERTEX
  8
Unknown_Line_Type
  70
32
  10
2105672.59
  20
2887702.07
  30
2980
  0
VERTEX
  8
Unknown_Line_Type
  70
32
  10
2105676.18
  20
2887706.47
  30
2980
  0
VERTEX
  8
Unknown_Line_Type
  70
32
  10
2105680.00
  20
2887711.97
  30
2980
  0
VERTEX
  8
Unknown_Line_Type
  70
32
  10
2105685.14
  20
2887714.26
  30
2980
  0
VERTEX
  8
Unknown_Line_Type
  70
32
  10
2105690.16
  20
2887717.64
  30
2980
  0
VERTEX
  8
Unknown_Line_Type
  70
32
  10
2105693.64
  20
2887723.21
  30
2980
  0
VERTEX
  8
Unknown_Line_Type
  70
32
  10
2105706.84
  20
2887724.13
  30
2980
  0
VERTEX
  8
Unknown_Line_Type
  70
32
  10
2105705.39
  20
2887734.13
  30
2980
  0
SEQEND
  8
Unknown_Line_Type
  0
POLYLINE
  8
Unknown_Line_Type
  70
8
  66
1
 62
0
 39
0
  0
VERTEX
  8
Unknown_Line_Type
  70
32
  10
2105888.48
  20
2887851.22
  30
2982
  0
VERTEX
  8
Unknown_Line_Type
  70
32
  10
2105890.38
  20
2887847.20
  30
2982
  0
VERTEX
  8
Unknown_Line_Type
  70
32
  10
2105887.28
  20
2887844.15
  30
2982
  0
VERTEX
  8
Unknown_Line_Type
  70
32
  10
2105884.76
  20
2887843.60
  30
2982
  0
VERTEX
  8
Unknown_Line_Type
  70
32
  10
2105880.86
  20
2887842.03
  30
2982
  0
VERTEX
  8
Unknown_Line_Type
  70
32
  10
2105882.73
  20
2887832.48
  30
2982
  0
VERTEX
  8
Unknown_Line_Type
  70
32
  10
2105882.85
  20
2887827.67
  30
2982
  0
VERTEX
  8
Unknown_Line_Type
  70
32
  10
2105879.36
  20
2887828.51
  30
2982
  0
VERTEX
  8
Unknown_Line_Type
  70
32
  10
2105867.10
  20
2887826.24
  30
2982
  0
VERTEX
  8
Unknown_Line_Type
  70
32
  10
2105864.60
  20
2887824.38
  30
2982
  0
VERTEX
  8
Unknown_Line_Type
  70
32
  10
2105861.39
  20
2887825.78
  30
2982
  0
VERTEX
  8
Unknown_Line_Type
  70
32
  10
2105855.65
  20
2887825.93
  30
2982
  0
VERTEX
  8
Unknown_Line_Type
  70
32
  10
2105853.82
  20
2887823.53
  30
2982
  0
VERTEX
  8
Unknown_Line_Type
  70
32
  10
2105840.90
  20
2887809.22
  30
2982
  0
VERTEX
  8
Unknown_Line_Type
  70
32
  10
2105839.21
  20
2887807.80
  30
2982
  0
VERTEX
  8
Unknown_Line_Type
  70
32
  10
2105837.19
  20
2887806.72
  30
2982
  0
VERTEX
  8
Unknown_Line_Type
  70
32
  10
2105836.92
  20
2887807.24
  30
2982
  0
VERTEX
  8
Unknown_Line_Type
  70
32
  10
2105833.69
  20
2887808.67
  30
2982
  0
VERTEX
  8
Unknown_Line_Type
  70
32
  10
2105828.43
  20
2887812.82
  30
2982
  0
SEQEND
  8
Unknown_Line_Type
  0
POLYLINE
  8
Unknown_Line_Type
  70
8
  66
1
 62
0
 39
0
  0
VERTEX
  8
Unknown_Line_Type
  70
32
  10
2105817.69
  20
2887805.95
  30
2982
  0
VERTEX
  8
Unknown_Line_Type
  70
32
  10
2105811.54
  20
2887796.63
  30
2982
  0
VERTEX
  8
Unknown_Line_Type
  70
32
  10
2105808.77
  20
2887791.50
  30
2982
  0
VERTEX
  8
Unknown_Line_Type
  70
32
  10
2105803.83
  20
2887786.83
  30
2982
  0
VERTEX
  8
Unknown_Line_Type
  70
32
  10
2105794.46
  20
2887782.33
  30
2982
  0
VERTEX
  8
Unknown_Line_Type
  70
32
  10
2105790.71
  20
2887775.64
  30
2982
  0
VERTEX
  8
Unknown_Line_Type
  70
32
  10
2105793.71
  20
2887769.06
  30
2982
  0
VERTEX
  8
Unknown_Line_Type
  70
32
  10
2105794.93
  20
2887760.37
  30
2982
  0
VERTEX
  8
Unknown_Line_Type
  70
32
  10
2105787.01
  20
2887750.36
  30
2982
  0
VERTEX
  8
Unknown_Line_Type
  70
32
  10
2105786.30
  20
2887745.94
  30
2982
  0
VERTEX
  8
Unknown_Line_Type
  70
32
  10
2105781.17
  20
2887739.46
  30
2982
  0
VERTEX
  8
Unknown_Line_Type
  70
32
  10
2105778.08
  20
2887741.10
  30
2982
  0
VERTEX
  8
Unknown_Line_Type
  70
32
  10
2105774.33
  20
2887739.08
  30
2982
  0
VERTEX
  8
Unknown_Line_Type
  70
32
  10
2105768.04
  20
2887737.76
  30
2982
  0
VERTEX
  8
Unknown_Line_Type
  70
32
  10
2105763.33
  20
2887731.39
  30
2982
  0
VERTEX
  8
Unknown_Line_Type
  70
32
  10
2105760.36
  20
2887726.87
  30
2982
  0
VERTEX
  8
Unknown_Line_Type
  70
32
  10
2105753.51
  20
2887722.92
  30
2982
  0
VERTEX
  8
Unknown_Line_Type
  70
32
  10
2105749.09
  20
2887716.63
  30
2982
  0
VERTEX
  8
Unknown_Line_Type
  70
32
  10
2105747.59
  20
2887715.60
  30
2982
  0
VERTEX
  8
Unknown_Line_Type
  70
32
  10
2105740.76
  20
2887705.77
  30
2982
  0
VERTEX
  8
Unknown_Line_Type
  70
32
  10
2105741.23
  20
2887704.12
  30
2982
  0
VERTEX
  8
Unknown_Line_Type
  70
32
  10
2105740.66
  20
2887701.60
  30
2982
  0
VERTEX
  8
Unknown_Line_Type
  70
32
  10
2105731.33
  20
2887700.36
  30
2982
  0
VERTEX
  8
Unknown_Line_Type
  70
32
  10
2105721.50
  20
2887702.85
  30
2982
  0
VERTEX
  8
Unknown_Line_Type
  70
32
  10
2105717.12
  20
2887697.15
  30
2982
  0
VERTEX
  8
Unknown_Line_Type
  70
32
  10
2105710.61
  20
2887692.84
  30
2982
  0
VERTEX
  8
Unknown_Line_Type
  70
32
  10
2105703.02
  20
2887686.28
  30
2982
  0
VERTEX
  8
Unknown_Line_Type
  70
32
  10
2105704.02
  20
2887680.93
  30
2982
  0
VERTEX
  8
Unknown_Line_Type
  70
32
  10
2105703.96
  20
2887672.95
  30
2982
  0
VERTEX
  8
Unknown_Line_Type
  70
32
  10
2105705.28
  20
2887667.73
  30
2982
  0
VERTEX
  8
Unknown_Line_Type
  70
32
  10
2105708.83
  20
2887653.94
  30
2982
  0
VERTEX
  8
Unknown_Line_Type
  70
32
  10
2105699.98
  20
2887648.47
  30
2982
  0
VERTEX
  8
Unknown_Line_Type
  70
32
  10
2105703.62
  20
2887637.78
  30
2982
  0
VERTEX
  8
Unknown_Line_Type
  70
32
  10
2105701.84
  20
2887635.00
  30
2982
  0
SEQEND
  8
Unknown_Line_Type
  0
POLYLINE
  8
Unknown_Line_Type
  70
8
  66
1
 62
0
 39
0
  0
VERTEX
  8
Unknown_Line_Type
  70
32
  10
2105874.75
  20
2887836.74
  30
2982
  0
VERTEX
  8
Unknown_Line_Type
  70
32
  10
2105866.57
  20
2887834.29
  30
2982
  0
VERTEX
  8
Unknown_Line_Type
  70
32
  10
2105865.91
  20
2887836.79
  30
2982
  0
SEQEND
  8
Unknown_Line_Type
  0
POLYLINE
  8
Unknown_Line_Type
  70
8
  66
1
 62
0
 39
0
  0
VERTEX
  8
Unknown_Line_Type
  70
32
  10
2105873.65
  20
2887841.74
  30
2982
  0
VERTEX
  8
Unknown_Line_Type
  70
32
  10
2105874.75
  20
2887836.74
  30
2982
  0
SEQEND
  8
Unknown_Line_Type
  0
POLYLINE
  8
Unknown_Line_Type
  70
8
  66
1
 62
0
 39
0
  0
VERTEX
  8
Unknown_Line_Type
  70
32
  10
2105962.18
  20
2887898.36
  30
2984
  0
VERTEX
  8
Unknown_Line_Type
  70
32
  10
2105962.65
  20
2887898.00
  30
2984
  0
VERTEX
  8
Unknown_Line_Type
  70
32
  10
2105963.93
  20
2887896.54
  30
2984
  0
VERTEX
  8
Unknown_Line_Type
  70
32
  10
2105967.13
  20
2887897.93
  30
2984
  0
VERTEX
  8
Unknown_Line_Type
  70
32
  10
2105975.74
  20
2887897.10
  30
2984
  0
VERTEX
  8
Unknown_Line_Type
  70
32
  10
2105978.25
  20
2887898.75
  30
2984
  0
VERTEX
  8
Unknown_Line_Type
  70
32
  10
2105979.46
  20
2887907.03
  30
2984
  0
VERTEX
  8
Unknown_Line_Type
  70
32
  10
2105978.71
  20
2887908.93
  30
2984
  0
SEQEND
  8
Unknown_Line_Type
  0
POLYLINE
  8
Unknown_Line_Type
  70
8
  66
1
 62
0
 39
0
  0
VERTEX
  8
Unknown_Line_Type
  70
32
  10
2105984.64
  20
2887912.72
  30
2984
  0
VERTEX
  8
Unknown_Line_Type
  70
32
  10
2105985.00
  20
2887912.48
  30
2984
  0
VERTEX
  8
Unknown_Line_Type
  70
32
  10
2105987.29
  20
2887910.40
  30
2984
  0
VERTEX
  8
Unknown_Line_Type
  70
32
  10
2105991.65
  20
2887903.57
  30
2984
  0
VERTEX
  8
Unknown_Line_Type
  70
32
  10
2105995.40
  20
2887897.11
  30
2984
  0
VERTEX
  8
Unknown_Line_Type
  70
32
  10
2105995.84
  20
2887895.72
  30
2984
  0
VERTEX
  8
Unknown_Line_Type
  70
32
  10
2105993.10
  20
2887891.39
  30
2984
  0
VERTEX
  8
Unknown_Line_Type
  70
32
  10
2105989.80
  20
2887882.89
  30
2984
  0
VERTEX
  8
Unknown_Line_Type
  70
32
  10
2105988.74
  20
2887879.60
  30
2984
  0
VERTEX
  8
Unknown_Line_Type
  70
32
  10
2105985.67
  20
2887876.24
  30
2984
  0
VERTEX
  8
Unknown_Line_Type
  70
32
  10
2105981.96
  20
2887873.98
  30
2984
  0
VERTEX
  8
Unknown_Line_Type
  70
32
  10
2105974.48
  20
2887868.59
  30
2984
  0
VERTEX
  8
Unknown_Line_Type
  70
32
  10
2105973.75
  20
2887863.70
  30
2984
  0
VERTEX
  8
Unknown_Line_Type
  70
32
  10
2105973.37
  20
2887860.68
  30
2984
  0
VERTEX
  8
Unknown_Line_Type
  70
32
  10
2105978.29
  20
2887857.79
  30
2984
  0
VERTEX
  8
Unknown_Line_Type
  70
32
  10
2105979.03
  20
2887853.48
  30
2984
  0
VERTEX
  8
Unknown_Line_Type
  70
32
  10
2105980.31
  20
2887852.47
  30
2984
  0
VERTEX
  8
Unknown_Line_Type
  70
32
  10
2105981.46
  20
2887849.42
  30
2984
  0
VERTEX
  8
Unknown_Line_Type
  70
32
  10
2105982.36
  20
2887848.51
  30
2984
  0
VERTEX
  8
Unknown_Line_Type
  70
32
  10
2105980.74
  20
2887844.92
  30
2984
  0
VERTEX
  8
Unknown_Line_Type
  70
32
  10
2105979.35
  20
2887843.84
  30
2984
  0
VERTEX
  8
Unknown_Line_Type
  70
32
  10
2105971.61
  20
2887836.59
  30
2984
  0
VERTEX
  8
Unknown_Line_Type
  70
32
  10
2105969.58
  20
2887832.41
  30
2984
  0
VERTEX
  8
Unknown_Line_Type
  70
32
  10
2105974.97
  20
2887831.91
  30
2984
  0
VERTEX
  8
Unknown_Line_Type
  70
32
  10
2105975.98
  20
2887831.47
  30
2984
  0
VERTEX
  8
Unknown_Line_Type
  70
32
  10
2105980.17
  20
2887829.67
  30
2984
  0
VERTEX
  8
Unknown_Line_Type
  70
32
  10
2105987.61
  20
2887823.23
  30
2984
  0
VERTEX
  8
Unknown_Line_Type
  70
32
  10
2105992.14
  20
2887817.45
  30
2984
  0
VERTEX
  8
Unknown_Line_Type
  70
32
  10
2105988.53
  20
2887813.36
  30
2984
  0
VERTEX
  8
Unknown_Line_Type
  70
32
  10
2105989.59
  20
2887808.38
  30
2984
  0
VERTEX
  8
Unknown_Line_Type
  70
32
  10
2105992.15
  20
2887807.18
  30
2984
  0
VERTEX
  8
Unknown_Line_Type
  70
32
  10
2105992.31
  20
2887801.54
  30
2984
  0
VERTEX
  8
Unknown_Line_Type
  70
32
  10
2105988.22
  20
2887803.92
  30
2984
  0
VERTEX
  8
Unknown_Line_Type
  70
32
  10
2105984.87
  20
2887804.43
  30
2984
  0
VERTEX
  8
Unknown_Line_Type
  70
32
  10
2105981.95
  20
2887804.58
  30
2984
  0
VERTEX
  8
Unknown_Line_Type
  70
32
  10
2105977.65
  20
2887807.56
  30
2984
  0
VERTEX
  8
Unknown_Line_Type
  70
32
  10
2105970.25
  20
2887809.28
  30
2984
  0
VERTEX
  8
Unknown_Line_Type
  70
32
  10
2105965.42
  20
2887811.64
  30
2984
  0
VERTEX
  8
Unknown_Line_Type
  70
32
  10
2105964.68
  20
2887813.01
  30
2984
  0
VERTEX
  8
Unknown_Line_Type
  70
32
  10
2105962.03
  20
2887812.20
  30
2984
  0
VERTEX
  8
Unknown_Line_Type
  70
32
  10
2105950.46
  20
2887811.44
  30
2984
  0
VERTEX
  8
Unknown_Line_Type
  70
32
  10
2105946.32
  20
2887812.01
  30
2984
  0
VERTEX
  8
Unknown_Line_Type
  70
32
  10
2105935.88
  20
2887809.10
  30
2984
  0
VERTEX
  8
Unknown_Line_Type
  70
32
  10
2105930.59
  20
2887804.02
  30
2984
  0
VERTEX
  8
Unknown_Line_Type
  70
32
  10
2105924.45
  20
2887808.94
  30
2984
  0
VERTEX
  8
Unknown_Line_Type
  70
32
  10
2105918.06
  20
2887810.44
  30
2984
  0
VERTEX
  8
Unknown_Line_Type
  70
32
  10
2105907.11
  20
2887806.58
  30
2984
  0
VERTEX
  8
Unknown_Line_Type
  70
32
  10
2105904.56
  20
2887807.38
  30
2984
  0
VERTEX
  8
Unknown_Line_Type
  70
32
  10
2105901.52
  20
2887807.53
  30
2984
  0
VERTEX
  8
Unknown_Line_Type
  70
32
  10
2105897.31
  20
2887808.50
  30
2984
  0
VERTEX
  8
Unknown_Line_Type
  70
32
  10
2105894.09
  20
2887801.22
  30
2984
  0
VERTEX
  8
Unknown_Line_Type
  70
32
  10
2105875.51
  20
2887791.73
  30
2984
  0
VERTEX
  8
Unknown_Line_Type
  70
32
  10
2105872.41
  20
2887791.50
  30
2984
  0
VERTEX
  8
Unknown_Line_Type
  70
32
  10
2105861.77
  20
2887788.78
  30
2984
  0
VERTEX
  8
Unknown_Line_Type
  70
32
  10
2105859.57
  20
2887785.12
  30
2984
  0
VERTEX
  8
Unknown_Line_Type
  70
32
  10
2105862.74
  20
2887776.15
  30
2984
  0
VERTEX
  8
Unknown_Line_Type
  70
32
  10
2105857.15
  20
2887768.67
  30
2984
  0
VERTEX
  8
Unknown_Line_Type
  70
32
  10
2105854.81
  20
2887768.09
  30
2984
  0
VERTEX
  8
Unknown_Line_Type
  70
32
  10
2105844.94
  20
2887768.72
  30
2984
  0
VERTEX
  8
Unknown_Line_Type
  70
32
  10
2105837.06
  20
2887765.07
  30
2984
  0
VERTEX
  8
Unknown_Line_Type
  70
32
  10
2105836.55
  20
2887761.09
  30
2984
  0
VERTEX
  8
Unknown_Line_Type
  70
32
  10
2105832.16
  20
2887753.58
  30
2984
  0
VERTEX
  8
Unknown_Line_Type
  70
32
  10
2105829.38
  20
2887746.72
  30
2984
  0
VERTEX
  8
Unknown_Line_Type
  70
32
  10
2105829.35
  20
2887737.10
  30
2984
  0
VERTEX
  8
Unknown_Line_Type
  70
32
  10
2105822.03
  20
2887734.62
  30
2984
  0
VERTEX
  8
Unknown_Line_Type
  70
32
  10
2105820.71
  20
2887733.11
  30
2984
  0
VERTEX
  8
Unknown_Line_Type
  70
32
  10
2105820.01
  20
2887724.04
  30
2984
  0
VERTEX
  8
Unknown_Line_Type
  70
32
  10
2105819.24
  20
2887718.31
  30
2984
  0
VERTEX
  8
Unknown_Line_Type
  70
32
  10
2105814.87
  20
2887717.10
  30
2984
  0
VERTEX
  8
Unknown_Line_Type
  70
32
  10
2105811.40
  20
2887715.89
  30
2984
  0
VERTEX
  8
Unknown_Line_Type
  70
32
  10
2105807.86
  20
2887715.89
  30
2984
  0
VERTEX
  8
Unknown_Line_Type
  70
32
  10
2105803.43
  20
2887712.47
  30
2984
  0
VERTEX
  8
Unknown_Line_Type
  70
32
  10
2105792.21
  20
2887701.89
  30
2984
  0
VERTEX
  8
Unknown_Line_Type
  70
32
  10
2105784.51
  20
2887702.60
  30
2984
  0
VERTEX
  8
Unknown_Line_Type
  70
32
  10
2105784.45
  20
2887698.68
  30
2984
  0
VERTEX
  8
Unknown_Line_Type
  70
32
  10
2105776.43
  20
2887694.39
  30
2984
  0
VERTEX
  8
Unknown_Line_Type
  70
32
  10
2105772.14
  20
2887689.00
  30
2984
  0
VERTEX
  8
Unknown_Line_Type
  70
32
  10
2105765.50
  20
2887687.49
  30
2984
  0
VERTEX
  8
Unknown_Line_Type
  70
32
  10
2105758.14
  20
2887683.89
  30
2984
  0
VERTEX
  8
Unknown_Line_Type
  70
32
  10
2105755.64
  20
2887679.23
  30
2984
  0
VERTEX
  8
Unknown_Line_Type
  70
32
  10
2105755.62
  20
2887675.83
  30
2984
  0
VERTEX
  8
Unknown_Line_Type
  70
32
  10
2105748.32
  20
2887667.59
  30
2984
  0
VERTEX
  8
Unknown_Line_Type
  70
32
  10
2105746.26
  20
2887665.53
  30
2984
  0
VERTEX
  8
Unknown_Line_Type
  70
32
  10
2105740.21
  20
2887661.04
  30
2984
  0
VERTEX
  8
Unknown_Line_Type
  70
32
  10
2105745.04
  20
2887654.10
  30
2984
  0
VERTEX
  8
Unknown_Line_Type
  70
32
  10
2105746.41
  20
2887649.03
  30
2984
  0
VERTEX
  8
Unknown_Line_Type
  70
32
  10
2105745.86
  20
2887643.89
  30
2984
  0
VERTEX
  8
Unknown_Line_Type
  70
32
  10
2105746.71
  20
2887636.56
  30
2984
  0
VERTEX
  8
Unknown_Line_Type
  70
32
  10
2105745.49
  20
2887635.00
  30
2984
  0
SEQEND
  8
Unknown_Line_Type
  0
POLYLINE
  8
Unknown_Line_Type
  70
8
  66
1
 62
0
 39
0
  0
VERTEX
  8
Unknown_Line_Type
  70
32
  10
2105995.98
  20
2887919.97
  30
2986
  0
VERTEX
  8
Unknown_Line_Type
  70
32
  10
2105998.87
  20
2887917.01
  30
2986
  0
VERTEX
  8
Unknown_Line_Type
  70
32
  10
2106001.12
  20
2887914.28
  30
2986
  0
VERTEX
  8
Unknown_Line_Type
  70
32
  10
2106003.40
  20
2887909.43
  30
2986
  0
VERTEX
  8
Unknown_Line_Type
  70
32
  10
2106005.58
  20
2887909.35
  30
2986
  0
VERTEX
  8
Unknown_Line_Type
  70
32
  10
2106009.46
  20
2887905.01
  30
2986
  0
VERTEX
  8
Unknown_Line_Type
  70
32
  10
2106016.56
  20
2887901.69
  30
2986
  0
VERTEX
  8
Unknown_Line_Type
  70
32
  10
2106018.47
  20
2887901.86
  30
2986
  0
VERTEX
  8
Unknown_Line_Type
  70
32
  10
2106022.67
  20
2887901.52
  30
2986
  0
VERTEX
  8
Unknown_Line_Type
  70
32
  10
2106028.00
  20
2887898.54
  30
2986
  0
SEQEND
  8
Unknown_Line_Type
  0
POLYLINE
  8
Unknown_Line_Type
  70
8
  66
1
 62
0
 39
0
  0
VERTEX
  8
Unknown_Line_Type
  70
32
  10
2106028.00
  20
2887855.23
  30
2986
  0
VERTEX
  8
Unknown_Line_Type
  70
32
  10
2106026.92
  20
2887854.41
  30
2986
  0
VERTEX
  8
Unknown_Line_Type
  70
32
  10
2106026.59
  20
2887854.22
  30
2986
  0
VERTEX
  8
Unknown_Line_Type
  70
32
  10
2106022.67
  20
2887854.21
  30
2986
  0
VERTEX
  8
Unknown_Line_Type
  70
32
  10
2106018.38
  20
2887848.54
  30
2986
  0
VERTEX
  8
Unknown_Line_Type
  70
32
  10
2106016.43
  20
2887847.80
  30
2986
  0
VERTEX
  8
Unknown_Line_Type
  70
32
  10
2106012.75
  20
2887844.97
  30
2986
  0
VERTEX
  8
Unknown_Line_Type
  70
32
  10
2106010.54
  20
2887841.77
  30
2986
  0
VERTEX
  8
Unknown_Line_Type
  70
32
  10
2106008.51
  20
2887837.75
  30
2986
  0
VERTEX
  8
Unknown_Line_Type
  70
32
  10
2106009.81
  20
2887830.78
  30
2986
  0
VERTEX
  8
Unknown_Line_Type
  70
32
  10
2106010.18
  20
2887822.77
  30
2986
  0
VERTEX
  8
Unknown_Line_Type
  70
32
  10
2106008.87
  20
2887820.18
  30
2986
  0
VERTEX
  8
Unknown_Line_Type
  70
32
  10
2106012.61
  20
2887813.08
  30
2986
  0
VERTEX
  8
Unknown_Line_Type
  70
32
  10
2106016.66
  20
2887812.30
  30
2986
  0
VERTEX
  8
Unknown_Line_Type
  70
32
  10
2106020.13
  20
2887807.94
  30
2986
  0
VERTEX
  8
Unknown_Line_Type
  70
32
  10
2106017.46
  20
2887802.62
  30
2986
  0
VERTEX
  8
Unknown_Line_Type
  70
32
  10
2106013.33
  20
2887800.86
  30
2986
  0
VERTEX
  8
Unknown_Line_Type
  70
32
  10
2106012.01
  20
2887792.30
  30
2986
  0
VERTEX
  8
Unknown_Line_Type
  70
32
  10
2106019.21
  20
2887791.07
  30
2986
  0
VERTEX
  8
Unknown_Line_Type
  70
32
  10
2106028.00
  20
2887788.68
  30
2986
  0
SEQEND
  8
Unknown_Line_Type
  0
POLYLINE
  8
Unknown_Line_Type
  70
8
  66
1
 62
0
 39
0
  0
VERTEX
  8
Unknown_Line_Type
  70
32
  10
2106028.00
  20
2887772.90
  30
2986
  0
VERTEX
  8
Unknown_Line_Type
  70
32
  10
2106025.18
  20
2887774.41
  30
2986
  0
VERTEX
  8
Unknown_Line_Type
  70
32
  10
2106020.28
  20
2887776.70
  30
2986
  0
VERTEX
  8
Unknown_Line_Type
  70
32
  10
2106009.67
  20
2887785.49
  30
2986
  0
VERTEX
  8
Unknown_Line_Type
  70
32
  10
2106004.58
  20
2887785.60
  30
2986
  0
VERTEX
  8
Unknown_Line_Type
  70
32
  10
2106003.35
  20
2887786.53
  30
2986
  0
VERTEX
  8
Unknown_Line_Type
  70
32
  10
2105998.10
  20
2887784.69
  30
2986
  0
VERTEX
  8
Unknown_Line_Type
  70
32
  10
2105998.92
  20
2887780.28
  30
2986
  0
VERTEX
  8
Unknown_Line_Type
  70
32
  10
2106000.24
  20
2887780.07
  30
2986
  0
VERTEX
  8
Unknown_Line_Type
  70
32
  10
2106008.28
  20
2887771.53
  30
2986
  0
VERTEX
  8
Unknown_Line_Type
  70
32
  10
2106014.78
  20
2887766.14
  30
2986
  0
VERTEX
  8
Unknown_Line_Type
  70
32
  10
2106013.95
  20
2887760.72
  30
2986
  0
VERTEX
  8
Unknown_Line_Type
  70
32
  10
2106009.16
  20
2887759.68
  30
2986
  0
VERTEX
  8
Unknown_Line_Type
  70
32
  10
2106008.45
  20
2887763.34
  30
2986
  0
VERTEX
  8
Unknown_Line_Type
  70
32
  10
2105998.28
  20
2887770.09
  30
2986
  0
VERTEX
  8
Unknown_Line_Type
  70
32
  10
2105993.13
  20
2887770.48
  30
2986
  0
VERTEX
  8
Unknown_Line_Type
  70
32
  10
2105983.91
  20
2887768.91
  30
2986
  0
VERTEX
  8
Unknown_Line_Type
  70
32
  10
2105982.20
  20
2887764.45
  30
2986
  0
VERTEX
  8
Unknown_Line_Type
  70
32
  10
2105972.67
  20
2887760.94
  30
2986
  0
VERTEX
  8
Unknown_Line_Type
  70
32
  10
2105964.92
  20
2887762.76
  30
2986
  0
VERTEX
  8
Unknown_Line_Type
  70
32
  10
2105959.98
  20
2887764.65
  30
2986
  0
VERTEX
  8
Unknown_Line_Type
  70
32
  10
2105958.17
  20
2887767.45
  30
2986
  0
VERTEX
  8
Unknown_Line_Type
  70
32
  10
2105951.66
  20
2887762.45
  30
2986
  0
VERTEX
  8
Unknown_Line_Type
  70
32
  10
2105945.79
  20
2887771.12
  30
2986
  0
VERTEX
  8
Unknown_Line_Type
  70
32
  10
2105937.19
  20
2887765.89
  30
2986
  0
VERTEX
  8
Unknown_Line_Type
  70
32
  10
2105937.67
  20
2887759.85
  30
2986
  0
VERTEX
  8
Unknown_Line_Type
  70
32
  10
2105933.94
  20
2887757.45
  30
2986
  0
VERTEX
  8
Unknown_Line_Type
  70
32
  10
2105924.13
  20
2887757.31
  30
2986
  0
VERTEX
  8
Unknown_Line_Type
  70
32
  10
2105916.50
  20
2887750.61
  30
2986
  0
VERTEX
  8
Unknown_Line_Type
  70
32
  10
2105902.02
  20
2887747.83
  30
2986
  0
VERTEX
  8
Unknown_Line_Type
  70
32
  10
2105898.93
  20
2887746.10
  30
2986
  0
VERTEX
  8
Unknown_Line_Type
  70
32
  10
2105895.57
  20
2887744.32
  30
2986
  0
VERTEX
  8
Unknown_Line_Type
  70
32
  10
2105891.97
  20
2887738.25
  30
2986
  0
VERTEX
  8
Unknown_Line_Type
  70
32
  10
2105886.90
  20
2887730.22
  30
2986
  0
VERTEX
  8
Unknown_Line_Type
  70
32
  10
2105884.38
  20
2887724.40
  30
2986
  0
VERTEX
  8
Unknown_Line_Type
  70
32
  10
2105882.24
  20
2887722.09
  30
2986
  0
VERTEX
  8
Unknown_Line_Type
  70
32
  10
2105880.62
  20
2887719.66
  30
2986
  0
VERTEX
  8
Unknown_Line_Type
  70
32
  10
2105878.24
  20
2887720.07
  30
2986
  0
VERTEX
  8
Unknown_Line_Type
  70
32
  10
2105877.73
  20
2887723.48
  30
2986
  0
VERTEX
  8
Unknown_Line_Type
  70
32
  10
2105878.56
  20
2887728.84
  30
2986
  0
VERTEX
  8
Unknown_Line_Type
  70
32
  10
2105872.48
  20
2887730.87
  30
2986
  0
VERTEX
  8
Unknown_Line_Type
  70
32
  10
2105860.44
  20
2887729.59
  30
2986
  0
VERTEX
  8
Unknown_Line_Type
  70
32
  10
2105856.32
  20
2887726.91
  30
2986
  0
VERTEX
  8
Unknown_Line_Type
  70
32
  10
2105857.79
  20
2887718.95
  30
2986
  0
VERTEX
  8
Unknown_Line_Type
  70
32
  10
2105851.29
  20
2887705.78
  30
2986
  0
VERTEX
  8
Unknown_Line_Type
  70
32
  10
2105847.64
  20
2887701.88
  30
2986
  0
VERTEX
  8
Unknown_Line_Type
  70
32
  10
2105838.90
  20
2887697.69
  30
2986
  0
VERTEX
  8
Unknown_Line_Type
  70
32
  10
2105836.33
  20
2887696.72
  30
2986
  0
VERTEX
  8
Unknown_Line_Type
  70
32
  10
2105833.30
  20
2887694.01
  30
2986
  0
VERTEX
  8
Unknown_Line_Type
  70
32
  10
2105834.43
  20
2887691.25
  30
2986
  0
VERTEX
  8
Unknown_Line_Type
  70
32
  10
2105829.87
  20
2887676.60
  30
2986
  0
VERTEX
  8
Unknown_Line_Type
  70
32
  10
2105821.83
  20
2887678.71
  30
2986
  0
VERTEX
  8
Unknown_Line_Type
  70
32
  10
2105818.31
  20
2887678.32
  30
2986
  0
VERTEX
  8
Unknown_Line_Type
  70
32
  10
2105816.73
  20
2887675.10
  30
2986
  0
VERTEX
  8
Unknown_Line_Type
  70
32
  10
2105815.10
  20
2887674.40
  30
2986
  0
VERTEX
  8
Unknown_Line_Type
  70
32
  10
2105815.00
  20
2887670.85
  30
2986
  0
VERTEX
  8
Unknown_Line_Type
  70
32
  10
2105816.75
  20
2887653.79
  30
2986
  0
VERTEX
  8
Unknown_Line_Type
  70
32
  10
2105816.94
  20
2887652.66
  30
2986
  0
VERTEX
  8
Unknown_Line_Type
  70
32
  10
2105808.42
  20
2887650.48
  30
2986
  0
VERTEX
  8
Unknown_Line_Type
  70
32
  10
2105805.19
  20
2887652.70
  30
2986
  0
VERTEX
  8
Unknown_Line_Type
  70
32
  10
2105805.17
  20
2887648.55
  30
2986
  0
VERTEX
  8
Unknown_Line_Type
  70
32
  10
2105796.59
  20
2887647.19
  30
2986
  0
VERTEX
  8
Unknown_Line_Type
  70
32
  10
2105790.78
  20
2887641.80
  30
2986
  0
VERTEX
  8
Unknown_Line_Type
  70
32
  10
2105791.60
  20
2887635.00
  30
2986
  0
SEQEND
  8
Unknown_Line_Type
  0
POLYLINE
  8
Unknown_Line_Type
  70
8
  66
1
 62
0
 39
0
  0
VERTEX
  8
Unknown_Line_Type
  70
32
  10
2106006.84
  20
2887926.92
  30
2988
  0
VERTEX
  8
Unknown_Line_Type
  70
32
  10
2106011.09
  20
2887922.17
  30
2988
  0
VERTEX
  8
Unknown_Line_Type
  70
32
  10
2106013.93
  20
2887921.96
  30
2988
  0
VERTEX
  8
Unknown_Line_Type
  70
32
  10
2106017.93
  20
2887919.39
  30
2988
  0
VERTEX
  8
Unknown_Line_Type
  70
32
  10
2106021.47
  20
2887914.99
  30
2988
  0
VERTEX
  8
Unknown_Line_Type
  70
32
  10
2106024.22
  20
2887909.12
  30
2988
  0
VERTEX
  8
Unknown_Line_Type
  70
32
  10
2106027.76
  20
2887908.94
  30
2988
  0
VERTEX
  8
Unknown_Line_Type
  70
32
  10
2106028.00
  20
2887908.75
  30
2988
  0
SEQEND
  8
Unknown_Line_Type
  0
POLYLINE
  8
Unknown_Line_Type
  70
8
  66
1
 62
0
 39
0
  0
VERTEX
  8
Unknown_Line_Type
  70
32
  10
2106028.00
  20
2887729.09
  30
2988
  0
VERTEX
  8
Unknown_Line_Type
  70
32
  10
2106025.87
  20
2887728.57
  30
2988
  0
VERTEX
  8
Unknown_Line_Type
  70
32
  10
2106024.33
  20
2887723.41
  30
2988
  0
VERTEX
  8
Unknown_Line_Type
  70
32
  10
2106017.96
  20
2887723.72
  30
2988
  0
VERTEX
  8
Unknown_Line_Type
  70
32
  10
2106003.95
  20
2887720.64
  30
2988
  0
VERTEX
  8
Unknown_Line_Type
  70
32
  10
2106003.35
  20
2887715.62
  30
2988
  0
VERTEX
  8
Unknown_Line_Type
  70
32
  10
2106002.55
  20
2887713.13
  30
2988
  0
VERTEX
  8
Unknown_Line_Type
  70
32
  10
2106000.62
  20
2887710.09
  30
2988
  0
VERTEX
  8
Unknown_Line_Type
  70
32
  10
2105996.57
  20
2887709.61
  30
2988
  0
VERTEX
  8
Unknown_Line_Type
  70
32
  10
2105994.33
  20
2887715.11
  30
2988
  0
VERTEX
  8
Unknown_Line_Type
  70
32
  10
2105991.42
  20
2887718.11
  30
2988
  0
VERTEX
  8
Unknown_Line_Type
  70
32
  10
2105998.45
  20
2887722.17
  30
2988
  0
VERTEX
  8
Unknown_Line_Type
  70
32
  10
2105999.04
  20
2887725.37
  30
2988
  0
VERTEX
  8
Unknown_Line_Type
  70
32
  10
2105993.22
  20
2887729.04
  30
2988
  0
VERTEX
  8
Unknown_Line_Type
  70
32
  10
2105985.39
  20
2887733.95
  30
2988
  0
VERTEX
  8
Unknown_Line_Type
  70
32
  10
2105979.17
  20
2887732.31
  30
2988
  0
VERTEX
  8
Unknown_Line_Type
  70
32
  10
2105980.63
  20
2887725.93
  30
2988
  0
VERTEX
  8
Unknown_Line_Type
  70
32
  10
2105979.48
  20
2887721.53
  30
2988
  0
VERTEX
  8
Unknown_Line_Type
  70
32
  10
2105977.89
  20
2887722.37
  30
2988
  0
VERTEX
  8
Unknown_Line_Type
  70
32
  10
2105974.88
  20
2887725.81
  30
2988
  0
VERTEX
  8
Unknown_Line_Type
  70
32
  10
2105968.57
  20
2887719.46
  30
2988
  0
VERTEX
  8
Unknown_Line_Type
  70
32
  10
2105956.02
  20
2887711.50
  30
2988
  0
VERTEX
  8
Unknown_Line_Type
  70
32
  10
2105951.64
  20
2887703.68
  30
2988
  0
VERTEX
  8
Unknown_Line_Type
  70
32
  10
2105947.53
  20
2887697.18
  30
2988
  0
VERTEX
  8
Unknown_Line_Type
  70
32
  10
2105938.05
  20
2887692.27
  30
2988
  0
VERTEX
  8
Unknown_Line_Type
  70
32
  10
2105925.87
  20
2887689.57
  30
2988
  0
VERTEX
  8
Unknown_Line_Type
  70
32
  10
2105915.56
  20
2887681.82
  30
2988
  0
VERTEX
  8
Unknown_Line_Type
  70
32
  10
2105903.03
  20
2887683.39
  30
2988
  0
VERTEX
  8
Unknown_Line_Type
  70
32
  10
2105896.73
  20
2887682.20
  30
2988
  0
VERTEX
  8
Unknown_Line_Type
  70
32
  10
2105890.69
  20
2887680.90
  30
2988
  0
VERTEX
  8
Unknown_Line_Type
  70
32
  10
2105891.14
  20
2887673.66
  30
2988
  0
VERTEX
  8
Unknown_Line_Type
  70
32
  10
2105892.00
  20
2887672.80
  30
2988
  0
VERTEX
  8
Unknown_Line_Type
  70
32
  10
2105894.20
  20
2887669.48
  30
2988
  0
VERTEX
  8
Unknown_Line_Type
  70
32
  10
2105904.23
  20
2887660.12
  30
2988
  0
VERTEX
  8
Unknown_Line_Type
  70
32
  10
2105907.00
  20
2887654.02
  30
2988
  0
VERTEX
  8
Unknown_Line_Type
  70
32
  10
2105904.53
  20
2887647.66
  30
2988
  0
VERTEX
  8
Unknown_Line_Type
  70
32
  10
2105903.77
  20
2887642.11
  30
2988
  0
VERTEX
  8
Unknown_Line_Type
  70
32
  10
2105893.79
  20
2887636.50
  30
2988
  0
VERTEX
  8
Unknown_Line_Type
  70
32
  10
2105887.46
  20
2887635.00
  30
2988
  0
SEQEND
  8
Unknown_Line_Type
  0
POLYLINE
  8
Unknown_Line_Type
  70
8
  66
1
 62
0
 39
0
  0
VERTEX
  8
Unknown_Line_Type
  70
32
  10
2105965.31
  20
2887635.00
  30
2990
  0
VERTEX
  8
Unknown_Line_Type
  70
32
  10
2105972.55
  20
2887647.87
  30
2990
  0
VERTEX
  8
Unknown_Line_Type
  70
32
  10
2105976.94
  20
2887656.46
  30
2990
  0
VERTEX
  8
Unknown_Line_Type
  70
32
  10
2105980.60
  20
2887660.32
  30
2990
  0
VERTEX
  8
Unknown_Line_Type
  70
32
  10
2105985.38
  20
2887663.45
  30
2990
  0
VERTEX
  8
Unknown_Line_Type
  70
32
  10
2105989.61
  20
2887665.50
  30
2990
  0
VERTEX
  8
Unknown_Line_Type
  70
32
  10
2105997.76
  20
2887653.66
  30
2990
  0
VERTEX
  8
Unknown_Line_Type
  70
32
  10
2106001.50
  20
2887650.60
  30
2990
  0
VERTEX
  8
Unknown_Line_Type
  70
32
  10
2106002.67
  20
2887650.62
  30
2990
  0
VERTEX
  8
Unknown_Line_Type
  70
32
  10
2106003.52
  20
2887652.35
  30
2990
  0
VERTEX
  8
Unknown_Line_Type
  70
32
  10
2106012.05
  20
2887659.60
  30
2990
  0
VERTEX
  8
Unknown_Line_Type
  70
32
  10
2106016.53
  20
2887663.13
  30
2990
  0
VERTEX
  8
Unknown_Line_Type
  70
32
  10
2106020.96
  20
2887669.19
  30
2990
  0
VERTEX
  8
Unknown_Line_Type
  70
32
  10
2106027.58
  20
2887671.01
  30
2990
  0
VERTEX
  8
Unknown_Line_Type
  70
32
  10
2106028.00
  20
2887671.02
  30
2990
  0
SEQEND
  8
Unknown_Line_Type
  0
POLYLINE
  8
Unknown_Line_Type
  70
8
  66
1
 62
0
 39
0
  0
VERTEX
  8
Unknown_Line_Type
  70
32
  10
2106028.00
  20
2887936.25
  30
2990
  0
VERTEX
  8
Unknown_Line_Type
  70
32
  10
2106027.50
  20
2887937.27
  30
2990
  0
VERTEX
  8
Unknown_Line_Type
  70
32
  10
2106025.16
  20
2887938.64
  30
2990
  0
SEQEND
  8
Unknown_Line_Type
  0
ENDSEC
  0
EOF
