  0
SECTION
  2
HEADER
  9
$ACADVER
  1
AC1009
  9
$LUNITS
  70
2
  9
$LIMMIN
  10
1802554.00
  20
3191109.00
  9
$LIMMAX
  10
1810756.00
  20
3199311.00
  9
$EXTMIN
  10
1802554.00
  20
3191109.00
  9
$EXTMAX
  10
1810756.00
  20
3199311.00
  999
Created by Global Mapper
  999
Projection: State Plane Coordinate System
  999
Datum: NAD83
  999
Ground Units: feet
  999
ZONE: 5004
  999
STATE PLANE SCALE FACTOR: 1
  999
EXTRA FALSE EASTING (m): 0
  999
EXTRA FALSE NORTHING (m): 0
  999
EXTRA SCALE CENTER EASTING (m): 0
  999
EXTRA SCALE CENTER NORTHING (m): 0
  0
ENDSEC
  0
SECTION
  2
BLOCKS
  0
BLOCK
  8
FeatureAttribs
  70
0
  2
FEATURE
  3
FEATURE
  10
0.00000000
  20
0.00000000
  0
ATTDEF
  8
FeatureAttribs
  70
0
  1
 
  2
NAME
  3
NAME
  10
0.00000000
  20
0.00000000
  40
1.00000000
  0
ENDBLK
  0
ENDSEC
  0
SECTION
  2
ENTITIES
  0
POLYLINE
  8
Unknown_Line_Type
  70
8
  66
1
 62
0
 39
0
  0
VERTEX
  8
Unknown_Line_Type
  70
32
  10
1810369.38
  20
3199309.33
  30
2128
  0
VERTEX
  8
Unknown_Line_Type
  70
32
  10
1810369.56
  20
3199309.37
  30
2128
  0
VERTEX
  8
Unknown_Line_Type
  70
32
  10
1810370.08
  20
3199309.39
  30
2128
  0
VERTEX
  8
Unknown_Line_Type
  70
32
  10
1810370.87
  20
3199309.38
  30
2128
  0
VERTEX
  8
Unknown_Line_Type
  70
32
  10
1810371.89
  20
3199309.32
  30
2128
  0
VERTEX
  8
Unknown_Line_Type
  70
32
  10
1810373.21
  20
3199309.19
  30
2128
  0
VERTEX
  8
Unknown_Line_Type
  70
32
  10
1810374.68
  20
3199308.99
  30
2128
  0
VERTEX
  8
Unknown_Line_Type
  70
32
  10
1810380.59
  20
3199308.03
  30
2128
  0
VERTEX
  8
Unknown_Line_Type
  70
32
  10
1810381.76
  20
3199307.89
  30
2128
  0
VERTEX
  8
Unknown_Line_Type
  70
32
  10
1810382.92
  20
3199307.79
  30
2128
  0
VERTEX
  8
Unknown_Line_Type
  70
32
  10
1810384.07
  20
3199307.75
  30
2128
  0
VERTEX
  8
Unknown_Line_Type
  70
32
  10
1810385.21
  20
3199307.78
  30
2128
  0
VERTEX
  8
Unknown_Line_Type
  70
32
  10
1810386.35
  20
3199307.88
  30
2128
  0
VERTEX
  8
Unknown_Line_Type
  70
32
  10
1810387.33
  20
3199308.05
  30
2128
  0
VERTEX
  8
Unknown_Line_Type
  70
32
  10
1810391.23
  20
3199309.00
  30
2128
  0
VERTEX
  8
Unknown_Line_Type
  70
32
  10
1810392.19
  20
3199309.18
  30
2128
  0
VERTEX
  8
Unknown_Line_Type
  70
32
  10
1810393.13
  20
3199309.30
  30
2128
  0
VERTEX
  8
Unknown_Line_Type
  70
32
  10
1810394.05
  20
3199309.34
  30
2128
  0
VERTEX
  8
Unknown_Line_Type
  70
32
  10
1810394.96
  20
3199309.32
  30
2128
  0
VERTEX
  8
Unknown_Line_Type
  70
32
  10
1810395.83
  20
3199309.21
  30
2128
  0
VERTEX
  8
Unknown_Line_Type
  70
32
  10
1810396.66
  20
3199309.01
  30
2128
  0
VERTEX
  8
Unknown_Line_Type
  70
32
  10
1810397.44
  20
3199308.70
  30
2128
  0
VERTEX
  8
Unknown_Line_Type
  70
32
  10
1810398.23
  20
3199308.20
  30
2128
  0
VERTEX
  8
Unknown_Line_Type
  70
32
  10
1810398.96
  20
3199307.58
  30
2128
  0
VERTEX
  8
Unknown_Line_Type
  70
32
  10
1810400.35
  20
3199306.29
  30
2128
  0
VERTEX
  8
Unknown_Line_Type
  70
32
  10
1810401.07
  20
3199305.72
  30
2128
  0
VERTEX
  8
Unknown_Line_Type
  70
32
  10
1810401.84
  20
3199305.31
  30
2128
  0
VERTEX
  8
Unknown_Line_Type
  70
32
  10
1810402.63
  20
3199305.10
  30
2128
  0
VERTEX
  8
Unknown_Line_Type
  70
32
  10
1810403.47
  20
3199305.05
  30
2128
  0
VERTEX
  8
Unknown_Line_Type
  70
32
  10
1810404.36
  20
3199305.11
  30
2128
  0
VERTEX
  8
Unknown_Line_Type
  70
32
  10
1810405.29
  20
3199305.26
  30
2128
  0
VERTEX
  8
Unknown_Line_Type
  70
32
  10
1810406.24
  20
3199305.47
  30
2128
  0
VERTEX
  8
Unknown_Line_Type
  70
32
  10
1810407.21
  20
3199305.73
  30
2128
  0
VERTEX
  8
Unknown_Line_Type
  70
32
  10
1810409.20
  20
3199306.32
  30
2128
  0
VERTEX
  8
Unknown_Line_Type
  70
32
  10
1810415.03
  20
3199308.16
  30
2128
  0
VERTEX
  8
Unknown_Line_Type
  70
32
  10
1810417.86
  20
3199309.10
  30
2128
  0
VERTEX
  8
Unknown_Line_Type
  70
32
  10
1810420.44
  20
3199310.03
  30
2128
  0
VERTEX
  8
Unknown_Line_Type
  70
32
  10
1810422.24
  20
3199310.76
  30
2128
  0
VERTEX
  8
Unknown_Line_Type
  70
32
  10
1810422.70
  20
3199311.00
  30
2128
  0
SEQEND
  8
Unknown_Line_Type
  0
POLYLINE
  8
Unknown_Line_Type
  70
8
  66
1
 62
0
 39
0
  0
VERTEX
  8
Unknown_Line_Type
  70
32
  10
1810380.53
  20
3199299.66
  30
2130
  0
VERTEX
  8
Unknown_Line_Type
  70
32
  10
1810381.41
  20
3199299.14
  30
2130
  0
VERTEX
  8
Unknown_Line_Type
  70
32
  10
1810382.41
  20
3199298.63
  30
2130
  0
VERTEX
  8
Unknown_Line_Type
  70
32
  10
1810383.71
  20
3199298.04
  30
2130
  0
VERTEX
  8
Unknown_Line_Type
  70
32
  10
1810385.26
  20
3199297.38
  30
2130
  0
VERTEX
  8
Unknown_Line_Type
  70
32
  10
1810387.00
  20
3199296.71
  30
2130
  0
VERTEX
  8
Unknown_Line_Type
  70
32
  10
1810388.87
  20
3199296.05
  30
2130
  0
VERTEX
  8
Unknown_Line_Type
  70
32
  10
1810390.91
  20
3199295.41
  30
2130
  0
VERTEX
  8
Unknown_Line_Type
  70
32
  10
1810392.95
  20
3199294.85
  30
2130
  0
VERTEX
  8
Unknown_Line_Type
  70
32
  10
1810394.91
  20
3199294.39
  30
2130
  0
VERTEX
  8
Unknown_Line_Type
  70
32
  10
1810396.71
  20
3199294.06
  30
2130
  0
VERTEX
  8
Unknown_Line_Type
  70
32
  10
1810398.15
  20
3199293.88
  30
2130
  0
VERTEX
  8
Unknown_Line_Type
  70
32
  10
1810399.57
  20
3199293.77
  30
2130
  0
VERTEX
  8
Unknown_Line_Type
  70
32
  10
1810400.98
  20
3199293.71
  30
2130
  0
VERTEX
  8
Unknown_Line_Type
  70
32
  10
1810402.39
  20
3199293.73
  30
2130
  0
VERTEX
  8
Unknown_Line_Type
  70
32
  10
1810403.84
  20
3199293.85
  30
2130
  0
VERTEX
  8
Unknown_Line_Type
  70
32
  10
1810405.28
  20
3199294.03
  30
2130
  0
VERTEX
  8
Unknown_Line_Type
  70
32
  10
1810408.13
  20
3199294.54
  30
2130
  0
VERTEX
  8
Unknown_Line_Type
  70
32
  10
1810410.91
  20
3199295.13
  30
2130
  0
VERTEX
  8
Unknown_Line_Type
  70
32
  10
1810413.05
  20
3199295.65
  30
2130
  0
VERTEX
  8
Unknown_Line_Type
  70
32
  10
1810414.37
  20
3199296.05
  30
2130
  0
VERTEX
  8
Unknown_Line_Type
  70
32
  10
1810419.86
  20
3199297.78
  30
2130
  0
VERTEX
  8
Unknown_Line_Type
  70
32
  10
1810421.33
  20
3199298.21
  30
2130
  0
VERTEX
  8
Unknown_Line_Type
  70
32
  10
1810424.30
  20
3199299.00
  30
2130
  0
VERTEX
  8
Unknown_Line_Type
  70
32
  10
1810427.47
  20
3199299.75
  30
2130
  0
VERTEX
  8
Unknown_Line_Type
  70
32
  10
1810429.16
  20
3199300.07
  30
2130
  0
VERTEX
  8
Unknown_Line_Type
  70
32
  10
1810430.85
  20
3199300.29
  30
2130
  0
VERTEX
  8
Unknown_Line_Type
  70
32
  10
1810432.06
  20
3199300.36
  30
2130
  0
VERTEX
  8
Unknown_Line_Type
  70
32
  10
1810433.40
  20
3199300.37
  30
2130
  0
VERTEX
  8
Unknown_Line_Type
  70
32
  10
1810434.74
  20
3199300.29
  30
2130
  0
VERTEX
  8
Unknown_Line_Type
  70
32
  10
1810436.43
  20
3199300.05
  30
2130
  0
VERTEX
  8
Unknown_Line_Type
  70
32
  10
1810438.10
  20
3199299.71
  30
2130
  0
VERTEX
  8
Unknown_Line_Type
  70
32
  10
1810441.34
  20
3199298.93
  30
2130
  0
VERTEX
  8
Unknown_Line_Type
  70
32
  10
1810442.92
  20
3199298.61
  30
2130
  0
VERTEX
  8
Unknown_Line_Type
  70
32
  10
1810444.45
  20
3199298.41
  30
2130
  0
VERTEX
  8
Unknown_Line_Type
  70
32
  10
1810445.40
  20
3199298.39
  30
2130
  0
VERTEX
  8
Unknown_Line_Type
  70
32
  10
1810446.32
  20
3199298.47
  30
2130
  0
VERTEX
  8
Unknown_Line_Type
  70
32
  10
1810447.40
  20
3199298.75
  30
2130
  0
VERTEX
  8
Unknown_Line_Type
  70
32
  10
1810448.48
  20
3199299.23
  30
2130
  0
VERTEX
  8
Unknown_Line_Type
  70
32
  10
1810449.62
  20
3199299.95
  30
2130
  0
VERTEX
  8
Unknown_Line_Type
  70
32
  10
1810450.81
  20
3199300.86
  30
2130
  0
VERTEX
  8
Unknown_Line_Type
  70
32
  10
1810452.11
  20
3199301.97
  30
2130
  0
VERTEX
  8
Unknown_Line_Type
  70
32
  10
1810453.37
  20
3199303.20
  30
2130
  0
VERTEX
  8
Unknown_Line_Type
  70
32
  10
1810454.55
  20
3199304.50
  30
2130
  0
VERTEX
  8
Unknown_Line_Type
  70
32
  10
1810455.59
  20
3199305.83
  30
2130
  0
VERTEX
  8
Unknown_Line_Type
  70
32
  10
1810456.46
  20
3199307.15
  30
2130
  0
VERTEX
  8
Unknown_Line_Type
  70
32
  10
1810457.21
  20
3199308.57
  30
2130
  0
VERTEX
  8
Unknown_Line_Type
  70
32
  10
1810457.70
  20
3199309.78
  30
2130
  0
VERTEX
  8
Unknown_Line_Type
  70
32
  10
1810457.96
  20
3199310.63
  30
2130
  0
VERTEX
  8
Unknown_Line_Type
  70
32
  10
1810457.99
  20
3199311.00
  30
2130
  0
SEQEND
  8
Unknown_Line_Type
  0
POLYLINE
  8
Unknown_Line_Type
  70
8
  66
1
 62
0
 39
0
  0
VERTEX
  8
Unknown_Line_Type
  70
32
  10
1810393.85
  20
3199288.10
  30
2132
  0
VERTEX
  8
Unknown_Line_Type
  70
32
  10
1810403.32
  20
3199286.36
  30
2132
  0
VERTEX
  8
Unknown_Line_Type
  70
32
  10
1810405.19
  20
3199286.05
  30
2132
  0
VERTEX
  8
Unknown_Line_Type
  70
32
  10
1810413.19
  20
3199284.93
  30
2132
  0
VERTEX
  8
Unknown_Line_Type
  70
32
  10
1810414.95
  20
3199284.66
  30
2132
  0
VERTEX
  8
Unknown_Line_Type
  70
32
  10
1810416.70
  20
3199284.34
  30
2132
  0
VERTEX
  8
Unknown_Line_Type
  70
32
  10
1810418.43
  20
3199283.96
  30
2132
  0
VERTEX
  8
Unknown_Line_Type
  70
32
  10
1810420.14
  20
3199283.51
  30
2132
  0
VERTEX
  8
Unknown_Line_Type
  70
32
  10
1810421.26
  20
3199283.15
  30
2132
  0
VERTEX
  8
Unknown_Line_Type
  70
32
  10
1810422.36
  20
3199282.76
  30
2132
  0
VERTEX
  8
Unknown_Line_Type
  70
32
  10
1810427.41
  20
3199280.74
  30
2132
  0
VERTEX
  8
Unknown_Line_Type
  70
32
  10
1810429.05
  20
3199280.16
  30
2132
  0
VERTEX
  8
Unknown_Line_Type
  70
32
  10
1810430.71
  20
3199279.64
  30
2132
  0
VERTEX
  8
Unknown_Line_Type
  70
32
  10
1810432.39
  20
3199279.19
  30
2132
  0
VERTEX
  8
Unknown_Line_Type
  70
32
  10
1810434.06
  20
3199278.82
  30
2132
  0
VERTEX
  8
Unknown_Line_Type
  70
32
  10
1810435.76
  20
3199278.55
  30
2132
  0
VERTEX
  8
Unknown_Line_Type
  70
32
  10
1810437.47
  20
3199278.41
  30
2132
  0
VERTEX
  8
Unknown_Line_Type
  70
32
  10
1810439.31
  20
3199278.47
  30
2132
  0
VERTEX
  8
Unknown_Line_Type
  70
32
  10
1810441.15
  20
3199278.69
  30
2132
  0
VERTEX
  8
Unknown_Line_Type
  70
32
  10
1810443.00
  20
3199279.03
  30
2132
  0
VERTEX
  8
Unknown_Line_Type
  70
32
  10
1810444.86
  20
3199279.46
  30
2132
  0
VERTEX
  8
Unknown_Line_Type
  70
32
  10
1810448.48
  20
3199280.45
  30
2132
  0
VERTEX
  8
Unknown_Line_Type
  70
32
  10
1810457.27
  20
3199283.12
  30
2132
  0
VERTEX
  8
Unknown_Line_Type
  70
32
  10
1810459.01
  20
3199283.60
  30
2132
  0
VERTEX
  8
Unknown_Line_Type
  70
32
  10
1810460.75
  20
3199284.02
  30
2132
  0
VERTEX
  8
Unknown_Line_Type
  70
32
  10
1810462.48
  20
3199284.36
  30
2132
  0
VERTEX
  8
Unknown_Line_Type
  70
32
  10
1810470.95
  20
3199285.79
  30
2132
  0
VERTEX
  8
Unknown_Line_Type
  70
32
  10
1810472.66
  20
3199285.95
  30
2132
  0
VERTEX
  8
Unknown_Line_Type
  70
32
  10
1810475.90
  20
3199286.18
  30
2132
  0
VERTEX
  8
Unknown_Line_Type
  70
32
  10
1810477.36
  20
3199286.44
  30
2132
  0
VERTEX
  8
Unknown_Line_Type
  70
32
  10
1810478.52
  20
3199286.87
  30
2132
  0
VERTEX
  8
Unknown_Line_Type
  70
32
  10
1810479.48
  20
3199287.53
  30
2132
  0
VERTEX
  8
Unknown_Line_Type
  70
32
  10
1810479.97
  20
3199288.09
  30
2132
  0
VERTEX
  8
Unknown_Line_Type
  70
32
  10
1810480.36
  20
3199288.75
  30
2132
  0
VERTEX
  8
Unknown_Line_Type
  70
32
  10
1810480.76
  20
3199289.72
  30
2132
  0
VERTEX
  8
Unknown_Line_Type
  70
32
  10
1810481.14
  20
3199291.19
  30
2132
  0
VERTEX
  8
Unknown_Line_Type
  70
32
  10
1810481.74
  20
3199294.48
  30
2132
  0
VERTEX
  8
Unknown_Line_Type
  70
32
  10
1810482.08
  20
3199295.81
  30
2132
  0
VERTEX
  8
Unknown_Line_Type
  70
32
  10
1810482.59
  20
3199297.28
  30
2132
  0
VERTEX
  8
Unknown_Line_Type
  70
32
  10
1810483.29
  20
3199298.89
  30
2132
  0
VERTEX
  8
Unknown_Line_Type
  70
32
  10
1810484.14
  20
3199300.57
  30
2132
  0
VERTEX
  8
Unknown_Line_Type
  70
32
  10
1810485.09
  20
3199302.25
  30
2132
  0
VERTEX
  8
Unknown_Line_Type
  70
32
  10
1810486.22
  20
3199304.07
  30
2132
  0
VERTEX
  8
Unknown_Line_Type
  70
32
  10
1810487.38
  20
3199305.79
  30
2132
  0
VERTEX
  8
Unknown_Line_Type
  70
32
  10
1810488.53
  20
3199307.35
  30
2132
  0
VERTEX
  8
Unknown_Line_Type
  70
32
  10
1810489.62
  20
3199308.69
  30
2132
  0
VERTEX
  8
Unknown_Line_Type
  70
32
  10
1810490.58
  20
3199309.77
  30
2132
  0
VERTEX
  8
Unknown_Line_Type
  70
32
  10
1810491.34
  20
3199310.50
  30
2132
  0
VERTEX
  8
Unknown_Line_Type
  70
32
  10
1810491.87
  20
3199310.92
  30
2132
  0
VERTEX
  8
Unknown_Line_Type
  70
32
  10
1810492.12
  20
3199311.00
  30
2132
  0
SEQEND
  8
Unknown_Line_Type
  0
POLYLINE
  8
Unknown_Line_Type
  70
8
  66
1
 62
0
 39
0
  0
VERTEX
  8
Unknown_Line_Type
  70
32
  10
1810404.32
  20
3199279.02
  30
2134
  0
VERTEX
  8
Unknown_Line_Type
  70
32
  10
1810407.51
  20
3199279.08
  30
2134
  0
VERTEX
  8
Unknown_Line_Type
  70
32
  10
1810408.89
  20
3199279.03
  30
2134
  0
VERTEX
  8
Unknown_Line_Type
  70
32
  10
1810410.43
  20
3199278.89
  30
2134
  0
VERTEX
  8
Unknown_Line_Type
  70
32
  10
1810412.08
  20
3199278.67
  30
2134
  0
VERTEX
  8
Unknown_Line_Type
  70
32
  10
1810414.50
  20
3199278.18
  30
2134
  0
VERTEX
  8
Unknown_Line_Type
  70
32
  10
1810416.93
  20
3199277.52
  30
2134
  0
VERTEX
  8
Unknown_Line_Type
  70
32
  10
1810419.26
  20
3199276.72
  30
2134
  0
VERTEX
  8
Unknown_Line_Type
  70
32
  10
1810421.39
  20
3199275.82
  30
2134
  0
VERTEX
  8
Unknown_Line_Type
  70
32
  10
1810422.95
  20
3199275.01
  30
2134
  0
VERTEX
  8
Unknown_Line_Type
  70
32
  10
1810427.45
  20
3199272.37
  30
2134
  0
VERTEX
  8
Unknown_Line_Type
  70
32
  10
1810429.11
  20
3199271.48
  30
2134
  0
VERTEX
  8
Unknown_Line_Type
  70
32
  10
1810430.50
  20
3199270.82
  30
2134
  0
VERTEX
  8
Unknown_Line_Type
  70
32
  10
1810431.91
  20
3199270.25
  30
2134
  0
VERTEX
  8
Unknown_Line_Type
  70
32
  10
1810433.35
  20
3199269.78
  30
2134
  0
VERTEX
  8
Unknown_Line_Type
  70
32
  10
1810434.06
  20
3199269.59
  30
2134
  0
VERTEX
  8
Unknown_Line_Type
  70
32
  10
1810435.35
  20
3199269.31
  30
2134
  0
VERTEX
  8
Unknown_Line_Type
  70
32
  10
1810436.67
  20
3199269.13
  30
2134
  0
VERTEX
  8
Unknown_Line_Type
  70
32
  10
1810437.73
  20
3199269.04
  30
2134
  0
VERTEX
  8
Unknown_Line_Type
  70
32
  10
1810438.81
  20
3199269.01
  30
2134
  0
VERTEX
  8
Unknown_Line_Type
  70
32
  10
1810440.42
  20
3199269.07
  30
2134
  0
VERTEX
  8
Unknown_Line_Type
  70
32
  10
1810442.04
  20
3199269.22
  30
2134
  0
VERTEX
  8
Unknown_Line_Type
  70
32
  10
1810443.86
  20
3199269.47
  30
2134
  0
VERTEX
  8
Unknown_Line_Type
  70
32
  10
1810450.84
  20
3199270.64
  30
2134
  0
VERTEX
  8
Unknown_Line_Type
  70
32
  10
1810452.56
  20
3199270.86
  30
2134
  0
VERTEX
  8
Unknown_Line_Type
  70
32
  10
1810454.28
  20
3199270.99
  30
2134
  0
VERTEX
  8
Unknown_Line_Type
  70
32
  10
1810455.95
  20
3199271.02
  30
2134
  0
VERTEX
  8
Unknown_Line_Type
  70
32
  10
1810457.61
  20
3199270.96
  30
2134
  0
VERTEX
  8
Unknown_Line_Type
  70
32
  10
1810462.12
  20
3199270.67
  30
2134
  0
VERTEX
  8
Unknown_Line_Type
  70
32
  10
1810463.36
  20
3199270.63
  30
2134
  0
VERTEX
  8
Unknown_Line_Type
  70
32
  10
1810464.59
  20
3199270.63
  30
2134
  0
VERTEX
  8
Unknown_Line_Type
  70
32
  10
1810466.40
  20
3199270.70
  30
2134
  0
VERTEX
  8
Unknown_Line_Type
  70
32
  10
1810471.43
  20
3199271.11
  30
2134
  0
VERTEX
  8
Unknown_Line_Type
  70
32
  10
1810473.03
  20
3199271.29
  30
2134
  0
VERTEX
  8
Unknown_Line_Type
  70
32
  10
1810474.61
  20
3199271.51
  30
2134
  0
VERTEX
  8
Unknown_Line_Type
  70
32
  10
1810476.18
  20
3199271.79
  30
2134
  0
VERTEX
  8
Unknown_Line_Type
  70
32
  10
1810477.71
  20
3199272.16
  30
2134
  0
VERTEX
  8
Unknown_Line_Type
  70
32
  10
1810479.02
  20
3199272.55
  30
2134
  0
VERTEX
  8
Unknown_Line_Type
  70
32
  10
1810482.80
  20
3199273.89
  30
2134
  0
VERTEX
  8
Unknown_Line_Type
  70
32
  10
1810484.01
  20
3199274.34
  30
2134
  0
VERTEX
  8
Unknown_Line_Type
  70
32
  10
1810485.21
  20
3199274.82
  30
2134
  0
VERTEX
  8
Unknown_Line_Type
  70
32
  10
1810486.71
  20
3199275.53
  30
2134
  0
VERTEX
  8
Unknown_Line_Type
  70
32
  10
1810488.19
  20
3199276.30
  30
2134
  0
VERTEX
  8
Unknown_Line_Type
  70
32
  10
1810492.72
  20
3199278.77
  30
2134
  0
VERTEX
  8
Unknown_Line_Type
  70
32
  10
1810494.32
  20
3199279.56
  30
2134
  0
VERTEX
  8
Unknown_Line_Type
  70
32
  10
1810495.95
  20
3199280.26
  30
2134
  0
VERTEX
  8
Unknown_Line_Type
  70
32
  10
1810497.60
  20
3199280.85
  30
2134
  0
VERTEX
  8
Unknown_Line_Type
  70
32
  10
1810499.07
  20
3199281.26
  30
2134
  0
VERTEX
  8
Unknown_Line_Type
  70
32
  10
1810502.04
  20
3199281.98
  30
2134
  0
VERTEX
  8
Unknown_Line_Type
  70
32
  10
1810503.61
  20
3199282.43
  30
2134
  0
VERTEX
  8
Unknown_Line_Type
  70
32
  10
1810505.17
  20
3199282.95
  30
2134
  0
VERTEX
  8
Unknown_Line_Type
  70
32
  10
1810506.73
  20
3199283.53
  30
2134
  0
VERTEX
  8
Unknown_Line_Type
  70
32
  10
1810508.27
  20
3199284.17
  30
2134
  0
VERTEX
  8
Unknown_Line_Type
  70
32
  10
1810509.97
  20
3199284.96
  30
2134
  0
VERTEX
  8
Unknown_Line_Type
  70
32
  10
1810515.02
  20
3199287.47
  30
2134
  0
VERTEX
  8
Unknown_Line_Type
  70
32
  10
1810516.73
  20
3199288.28
  30
2134
  0
VERTEX
  8
Unknown_Line_Type
  70
32
  10
1810519.75
  20
3199289.56
  30
2134
  0
VERTEX
  8
Unknown_Line_Type
  70
32
  10
1810524.27
  20
3199291.37
  30
2134
  0
VERTEX
  8
Unknown_Line_Type
  70
32
  10
1810525.73
  20
3199291.98
  30
2134
  0
VERTEX
  8
Unknown_Line_Type
  70
32
  10
1810527.16
  20
3199292.65
  30
2134
  0
VERTEX
  8
Unknown_Line_Type
  70
32
  10
1810528.80
  20
3199293.50
  30
2134
  0
VERTEX
  8
Unknown_Line_Type
  70
32
  10
1810530.41
  20
3199294.41
  30
2134
  0
VERTEX
  8
Unknown_Line_Type
  70
32
  10
1810532.07
  20
3199295.41
  30
2134
  0
VERTEX
  8
Unknown_Line_Type
  70
32
  10
1810540.34
  20
3199300.57
  30
2134
  0
VERTEX
  8
Unknown_Line_Type
  70
32
  10
1810542.06
  20
3199301.75
  30
2134
  0
VERTEX
  8
Unknown_Line_Type
  70
32
  10
1810543.74
  20
3199303.07
  30
2134
  0
VERTEX
  8
Unknown_Line_Type
  70
32
  10
1810545.32
  20
3199304.53
  30
2134
  0
VERTEX
  8
Unknown_Line_Type
  70
32
  10
1810546.75
  20
3199306.04
  30
2134
  0
VERTEX
  8
Unknown_Line_Type
  70
32
  10
1810548.02
  20
3199307.49
  30
2134
  0
VERTEX
  8
Unknown_Line_Type
  70
32
  10
1810550.54
  20
3199310.48
  30
2134
  0
VERTEX
  8
Unknown_Line_Type
  70
32
  10
1810550.91
  20
3199310.87
  30
2134
  0
VERTEX
  8
Unknown_Line_Type
  70
32
  10
1810551.09
  20
3199311.00
  30
2134
  0
SEQEND
  8
Unknown_Line_Type
  0
POLYLINE
  8
Unknown_Line_Type
  70
8
  66
1
 62
0
 39
0
  0
VERTEX
  8
Unknown_Line_Type
  70
32
  10
1810563.23
  20
3199311.00
  30
2134
  0
VERTEX
  8
Unknown_Line_Type
  70
32
  10
1810564.50
  20
3199310.73
  30
2134
  0
VERTEX
  8
Unknown_Line_Type
  70
32
  10
1810564.84
  20
3199310.69
  30
2134
  0
VERTEX
  8
Unknown_Line_Type
  70
32
  10
1810565.18
  20
3199310.74
  30
2134
  0
VERTEX
  8
Unknown_Line_Type
  70
32
  10
1810566.11
  20
3199311.00
  30
2134
  0
SEQEND
  8
Unknown_Line_Type
  0
POLYLINE
  8
Unknown_Line_Type
  70
8
  66
1
 62
0
 39
0
  0
VERTEX
  8
Unknown_Line_Type
  70
32
  10
1810412.11
  20
3199272.27
  30
2136
  0
VERTEX
  8
Unknown_Line_Type
  70
32
  10
1810412.21
  20
3199272.31
  30
2136
  0
VERTEX
  8
Unknown_Line_Type
  70
32
  10
1810412.83
  20
3199272.14
  30
2136
  0
VERTEX
  8
Unknown_Line_Type
  70
32
  10
1810413.92
  20
3199271.68
  30
2136
  0
VERTEX
  8
Unknown_Line_Type
  70
32
  10
1810415.37
  20
3199270.96
  30
2136
  0
VERTEX
  8
Unknown_Line_Type
  70
32
  10
1810416.78
  20
3199270.21
  30
2136
  0
VERTEX
  8
Unknown_Line_Type
  70
32
  10
1810421.97
  20
3199267.24
  30
2136
  0
VERTEX
  8
Unknown_Line_Type
  70
32
  10
1810423.99
  20
3199266.13
  30
2136
  0
VERTEX
  8
Unknown_Line_Type
  70
32
  10
1810425.73
  20
3199265.25
  30
2136
  0
VERTEX
  8
Unknown_Line_Type
  70
32
  10
1810426.87
  20
3199264.73
  30
2136
  0
VERTEX
  8
Unknown_Line_Type
  70
32
  10
1810427.96
  20
3199264.28
  30
2136
  0
VERTEX
  8
Unknown_Line_Type
  70
32
  10
1810429.80
  20
3199263.71
  30
2136
  0
VERTEX
  8
Unknown_Line_Type
  70
32
  10
1810431.60
  20
3199263.32
  30
2136
  0
VERTEX
  8
Unknown_Line_Type
  70
32
  10
1810433.42
  20
3199263.03
  30
2136
  0
VERTEX
  8
Unknown_Line_Type
  70
32
  10
1810435.26
  20
3199262.81
  30
2136
  0
VERTEX
  8
Unknown_Line_Type
  70
32
  10
1810436.76
  20
3199262.68
  30
2136
  0
VERTEX
  8
Unknown_Line_Type
  70
32
  10
1810438.25
  20
3199262.59
  30
2136
  0
VERTEX
  8
Unknown_Line_Type
  70
32
  10
1810439.75
  20
3199262.56
  30
2136
  0
VERTEX
  8
Unknown_Line_Type
  70
32
  10
1810441.25
  20
3199262.59
  30
2136
  0
VERTEX
  8
Unknown_Line_Type
  70
32
  10
1810443.04
  20
3199262.72
  30
2136
  0
VERTEX
  8
Unknown_Line_Type
  70
32
  10
1810444.83
  20
3199262.92
  30
2136
  0
VERTEX
  8
Unknown_Line_Type
  70
32
  10
1810448.41
  20
3199263.39
  30
2136
  0
VERTEX
  8
Unknown_Line_Type
  70
32
  10
1810450.20
  20
3199263.59
  30
2136
  0
VERTEX
  8
Unknown_Line_Type
  70
32
  10
1810451.36
  20
3199263.69
  30
2136
  0
VERTEX
  8
Unknown_Line_Type
  70
32
  10
1810452.52
  20
3199263.75
  30
2136
  0
VERTEX
  8
Unknown_Line_Type
  70
32
  10
1810454.13
  20
3199263.76
  30
2136
  0
VERTEX
  8
Unknown_Line_Type
  70
32
  10
1810457.28
  20
3199263.64
  30
2136
  0
VERTEX
  8
Unknown_Line_Type
  70
32
  10
1810460.88
  20
3199263.39
  30
2136
  0
VERTEX
  8
Unknown_Line_Type
  70
32
  10
1810462.71
  20
3199263.20
  30
2136
  0
VERTEX
  8
Unknown_Line_Type
  70
32
  10
1810464.53
  20
3199262.95
  30
2136
  0
VERTEX
  8
Unknown_Line_Type
  70
32
  10
1810466.32
  20
3199262.63
  30
2136
  0
VERTEX
  8
Unknown_Line_Type
  70
32
  10
1810471.69
  20
3199261.48
  30
2136
  0
VERTEX
  8
Unknown_Line_Type
  70
32
  10
1810473.49
  20
3199261.14
  30
2136
  0
VERTEX
  8
Unknown_Line_Type
  70
32
  10
1810475.23
  20
3199260.86
  30
2136
  0
VERTEX
  8
Unknown_Line_Type
  70
32
  10
1810478.73
  20
3199260.44
  30
2136
  0
VERTEX
  8
Unknown_Line_Type
  70
32
  10
1810485.63
  20
3199259.71
  30
2136
  0
VERTEX
  8
Unknown_Line_Type
  70
32
  10
1810487.29
  20
3199259.55
  30
2136
  0
VERTEX
  8
Unknown_Line_Type
  70
32
  10
1810488.94
  20
3199259.47
  30
2136
  0
VERTEX
  8
Unknown_Line_Type
  70
32
  10
1810490.58
  20
3199259.46
  30
2136
  0
VERTEX
  8
Unknown_Line_Type
  70
32
  10
1810492.20
  20
3199259.48
  30
2136
  0
VERTEX
  8
Unknown_Line_Type
  70
32
  10
1810493.79
  20
3199259.56
  30
2136
  0
VERTEX
  8
Unknown_Line_Type
  70
32
  10
1810495.35
  20
3199259.70
  30
2136
  0
VERTEX
  8
Unknown_Line_Type
  70
32
  10
1810496.84
  20
3199259.93
  30
2136
  0
VERTEX
  8
Unknown_Line_Type
  70
32
  10
1810498.38
  20
3199260.29
  30
2136
  0
VERTEX
  8
Unknown_Line_Type
  70
32
  10
1810499.79
  20
3199260.77
  30
2136
  0
VERTEX
  8
Unknown_Line_Type
  70
32
  10
1810501.03
  20
3199261.41
  30
2136
  0
VERTEX
  8
Unknown_Line_Type
  70
32
  10
1810502.05
  20
3199262.21
  30
2136
  0
VERTEX
  8
Unknown_Line_Type
  70
32
  10
1810502.81
  20
3199263.20
  30
2136
  0
VERTEX
  8
Unknown_Line_Type
  70
32
  10
1810503.39
  20
3199264.31
  30
2136
  0
VERTEX
  8
Unknown_Line_Type
  70
32
  10
1810503.92
  20
3199265.44
  30
2136
  0
VERTEX
  8
Unknown_Line_Type
  70
32
  10
1810504.49
  20
3199266.52
  30
2136
  0
VERTEX
  8
Unknown_Line_Type
  70
32
  10
1810505.25
  20
3199267.47
  30
2136
  0
VERTEX
  8
Unknown_Line_Type
  70
32
  10
1810506.17
  20
3199268.14
  30
2136
  0
VERTEX
  8
Unknown_Line_Type
  70
32
  10
1810507.31
  20
3199268.64
  30
2136
  0
VERTEX
  8
Unknown_Line_Type
  70
32
  10
1810508.60
  20
3199269.02
  30
2136
  0
VERTEX
  8
Unknown_Line_Type
  70
32
  10
1810510.19
  20
3199269.31
  30
2136
  0
VERTEX
  8
Unknown_Line_Type
  70
32
  10
1810515.42
  20
3199269.88
  30
2136
  0
VERTEX
  8
Unknown_Line_Type
  70
32
  10
1810517.22
  20
3199270.15
  30
2136
  0
VERTEX
  8
Unknown_Line_Type
  70
32
  10
1810519.01
  20
3199270.56
  30
2136
  0
VERTEX
  8
Unknown_Line_Type
  70
32
  10
1810520.39
  20
3199271.00
  30
2136
  0
VERTEX
  8
Unknown_Line_Type
  70
32
  10
1810521.76
  20
3199271.55
  30
2136
  0
VERTEX
  8
Unknown_Line_Type
  70
32
  10
1810523.11
  20
3199272.17
  30
2136
  0
VERTEX
  8
Unknown_Line_Type
  70
32
  10
1810524.45
  20
3199272.86
  30
2136
  0
VERTEX
  8
Unknown_Line_Type
  70
32
  10
1810525.86
  20
3199273.66
  30
2136
  0
VERTEX
  8
Unknown_Line_Type
  70
32
  10
1810527.27
  20
3199274.50
  30
2136
  0
VERTEX
  8
Unknown_Line_Type
  70
32
  10
1810531.47
  20
3199277.11
  30
2136
  0
VERTEX
  8
Unknown_Line_Type
  70
32
  10
1810536.93
  20
3199280.37
  30
2136
  0
VERTEX
  8
Unknown_Line_Type
  70
32
  10
1810538.23
  20
3199281.07
  30
2136
  0
VERTEX
  8
Unknown_Line_Type
  70
32
  10
1810539.51
  20
3199281.68
  30
2136
  0
VERTEX
  8
Unknown_Line_Type
  70
32
  10
1810540.75
  20
3199282.16
  30
2136
  0
VERTEX
  8
Unknown_Line_Type
  70
32
  10
1810541.95
  20
3199282.48
  30
2136
  0
VERTEX
  8
Unknown_Line_Type
  70
32
  10
1810543.19
  20
3199282.58
  30
2136
  0
VERTEX
  8
Unknown_Line_Type
  70
32
  10
1810544.32
  20
3199282.40
  30
2136
  0
VERTEX
  8
Unknown_Line_Type
  70
32
  10
1810545.27
  20
3199281.91
  30
2136
  0
VERTEX
  8
Unknown_Line_Type
  70
32
  10
1810546.03
  20
3199281.05
  30
2136
  0
VERTEX
  8
Unknown_Line_Type
  70
32
  10
1810546.59
  20
3199279.92
  30
2136
  0
VERTEX
  8
Unknown_Line_Type
  70
32
  10
1810547.01
  20
3199278.59
  30
2136
  0
VERTEX
  8
Unknown_Line_Type
  70
32
  10
1810547.32
  20
3199277.14
  30
2136
  0
VERTEX
  8
Unknown_Line_Type
  70
32
  10
1810547.56
  20
3199275.65
  30
2136
  0
VERTEX
  8
Unknown_Line_Type
  70
32
  10
1810548.08
  20
3199271.61
  30
2136
  0
VERTEX
  8
Unknown_Line_Type
  70
32
  10
1810548.29
  20
3199270.68
  30
2136
  0
VERTEX
  8
Unknown_Line_Type
  70
32
  10
1810548.63
  20
3199270.01
  30
2136
  0
VERTEX
  8
Unknown_Line_Type
  70
32
  10
1810549.14
  20
3199269.65
  30
2136
  0
VERTEX
  8
Unknown_Line_Type
  70
32
  10
1810549.78
  20
3199269.57
  30
2136
  0
VERTEX
  8
Unknown_Line_Type
  70
32
  10
1810550.47
  20
3199269.79
  30
2136
  0
VERTEX
  8
Unknown_Line_Type
  70
32
  10
1810551.08
  20
3199270.23
  30
2136
  0
VERTEX
  8
Unknown_Line_Type
  70
32
  10
1810551.66
  20
3199270.86
  30
2136
  0
VERTEX
  8
Unknown_Line_Type
  70
32
  10
1810552.05
  20
3199271.42
  30
2136
  0
VERTEX
  8
Unknown_Line_Type
  70
32
  10
1810552.42
  20
3199272.04
  30
2136
  0
VERTEX
  8
Unknown_Line_Type
  70
32
  10
1810554.43
  20
3199275.90
  30
2136
  0
VERTEX
  8
Unknown_Line_Type
  70
32
  10
1810555.23
  20
3199277.17
  30
2136
  0
VERTEX
  8
Unknown_Line_Type
  70
32
  10
1810556.18
  20
3199278.33
  30
2136
  0
VERTEX
  8
Unknown_Line_Type
  70
32
  10
1810557.15
  20
3199279.20
  30
2136
  0
VERTEX
  8
Unknown_Line_Type
  70
32
  10
1810558.23
  20
3199280.00
  30
2136
  0
VERTEX
  8
Unknown_Line_Type
  70
32
  10
1810560.57
  20
3199281.55
  30
2136
  0
VERTEX
  8
Unknown_Line_Type
  70
32
  10
1810562.04
  20
3199282.60
  30
2136
  0
VERTEX
  8
Unknown_Line_Type
  70
32
  10
1810563.50
  20
3199283.76
  30
2136
  0
VERTEX
  8
Unknown_Line_Type
  70
32
  10
1810564.76
  20
3199284.85
  30
2136
  0
VERTEX
  8
Unknown_Line_Type
  70
32
  10
1810567.22
  20
3199287.16
  30
2136
  0
VERTEX
  8
Unknown_Line_Type
  70
32
  10
1810572.22
  20
3199292.21
  30
2136
  0
VERTEX
  8
Unknown_Line_Type
  70
32
  10
1810573.38
  20
3199293.32
  30
2136
  0
VERTEX
  8
Unknown_Line_Type
  70
32
  10
1810574.54
  20
3199294.36
  30
2136
  0
VERTEX
  8
Unknown_Line_Type
  70
32
  10
1810575.72
  20
3199295.31
  30
2136
  0
VERTEX
  8
Unknown_Line_Type
  70
32
  10
1810576.94
  20
3199296.14
  30
2136
  0
VERTEX
  8
Unknown_Line_Type
  70
32
  10
1810577.33
  20
3199296.37
  30
2136
  0
VERTEX
  8
Unknown_Line_Type
  70
32
  10
1810578.49
  20
3199296.91
  30
2136
  0
VERTEX
  8
Unknown_Line_Type
  70
32
  10
1810579.69
  20
3199297.26
  30
2136
  0
VERTEX
  8
Unknown_Line_Type
  70
32
  10
1810580.63
  20
3199297.38
  30
2136
  0
VERTEX
  8
Unknown_Line_Type
  70
32
  10
1810581.59
  20
3199297.39
  30
2136
  0
VERTEX
  8
Unknown_Line_Type
  70
32
  10
1810583.11
  20
3199297.25
  30
2136
  0
VERTEX
  8
Unknown_Line_Type
  70
32
  10
1810584.67
  20
3199296.99
  30
2136
  0
VERTEX
  8
Unknown_Line_Type
  70
32
  10
1810586.28
  20
3199296.65
  30
2136
  0
VERTEX
  8
Unknown_Line_Type
  70
32
  10
1810591.29
  20
3199295.51
  30
2136
  0
VERTEX
  8
Unknown_Line_Type
  70
32
  10
1810593.05
  20
3199295.19
  30
2136
  0
VERTEX
  8
Unknown_Line_Type
  70
32
  10
1810594.82
  20
3199294.92
  30
2136
  0
VERTEX
  8
Unknown_Line_Type
  70
32
  10
1810596.60
  20
3199294.73
  30
2136
  0
VERTEX
  8
Unknown_Line_Type
  70
32
  10
1810598.37
  20
3199294.60
  30
2136
  0
VERTEX
  8
Unknown_Line_Type
  70
32
  10
1810599.96
  20
3199294.55
  30
2136
  0
VERTEX
  8
Unknown_Line_Type
  70
32
  10
1810601.53
  20
3199294.57
  30
2136
  0
VERTEX
  8
Unknown_Line_Type
  70
32
  10
1810603.07
  20
3199294.65
  30
2136
  0
VERTEX
  8
Unknown_Line_Type
  70
32
  10
1810604.71
  20
3199294.81
  30
2136
  0
VERTEX
  8
Unknown_Line_Type
  70
32
  10
1810606.29
  20
3199295.13
  30
2136
  0
VERTEX
  8
Unknown_Line_Type
  70
32
  10
1810607.61
  20
3199295.58
  30
2136
  0
VERTEX
  8
Unknown_Line_Type
  70
32
  10
1810608.87
  20
3199296.18
  30
2136
  0
VERTEX
  8
Unknown_Line_Type
  70
32
  10
1810610.07
  20
3199296.92
  30
2136
  0
VERTEX
  8
Unknown_Line_Type
  70
32
  10
1810611.19
  20
3199297.77
  30
2136
  0
VERTEX
  8
Unknown_Line_Type
  70
32
  10
1810612.03
  20
3199298.54
  30
2136
  0
VERTEX
  8
Unknown_Line_Type
  70
32
  10
1810616.21
  20
3199302.57
  30
2136
  0
VERTEX
  8
Unknown_Line_Type
  70
32
  10
1810618.07
  20
3199304.29
  30
2136
  0
VERTEX
  8
Unknown_Line_Type
  70
32
  10
1810619.97
  20
3199305.97
  30
2136
  0
VERTEX
  8
Unknown_Line_Type
  70
32
  10
1810621.82
  20
3199307.51
  30
2136
  0
VERTEX
  8
Unknown_Line_Type
  70
32
  10
1810623.54
  20
3199308.85
  30
2136
  0
VERTEX
  8
Unknown_Line_Type
  70
32
  10
1810624.88
  20
3199309.81
  30
2136
  0
VERTEX
  8
Unknown_Line_Type
  70
32
  10
1810625.96
  20
3199310.51
  30
2136
  0
VERTEX
  8
Unknown_Line_Type
  70
32
  10
1810626.68
  20
3199310.92
  30
2136
  0
VERTEX
  8
Unknown_Line_Type
  70
32
  10
1810626.98
  20
3199311.00
  30
2136
  0
SEQEND
  8
Unknown_Line_Type
  0
POLYLINE
  8
Unknown_Line_Type
  70
8
  66
1
 62
0
 39
0
  0
VERTEX
  8
Unknown_Line_Type
  70
32
  10
1810642.92
  20
3199311.00
  30
2136
  0
VERTEX
  8
Unknown_Line_Type
  70
32
  10
1810643.24
  20
3199310.74
  30
2136
  0
VERTEX
  8
Unknown_Line_Type
  70
32
  10
1810643.52
  20
3199310.57
  30
2136
  0
VERTEX
  8
Unknown_Line_Type
  70
32
  10
1810644.16
  20
3199310.30
  30
2136
  0
VERTEX
  8
Unknown_Line_Type
  70
32
  10
1810646.49
  20
3199309.64
  30
2136
  0
VERTEX
  8
Unknown_Line_Type
  70
32
  10
1810647.20
  20
3199309.50
  30
2136
  0
VERTEX
  8
Unknown_Line_Type
  70
32
  10
1810647.73
  20
3199309.43
  30
2136
  0
VERTEX
  8
Unknown_Line_Type
  70
32
  10
1810647.95
  20
3199309.46
  30
2136
  0
VERTEX
  8
Unknown_Line_Type
  70
32
  10
1810648.09
  20
3199309.56
  30
2136
  0
VERTEX
  8
Unknown_Line_Type
  70
32
  10
1810648.15
  20
3199309.75
  30
2136
  0
VERTEX
  8
Unknown_Line_Type
  70
32
  10
1810648.28
  20
3199310.54
  30
2136
  0
VERTEX
  8
Unknown_Line_Type
  70
32
  10
1810648.38
  20
3199310.82
  30
2136
  0
VERTEX
  8
Unknown_Line_Type
  70
32
  10
1810648.50
  20
3199311.00
  30
2136
  0
SEQEND
  8
Unknown_Line_Type
  0
POLYLINE
  8
Unknown_Line_Type
  70
8
  66
1
 62
0
 39
0
  0
VERTEX
  8
Unknown_Line_Type
  70
32
  10
1810670.63
  20
3199311.00
  30
2138
  0
VERTEX
  8
Unknown_Line_Type
  70
32
  10
1810670.51
  20
3199310.77
  30
2138
  0
VERTEX
  8
Unknown_Line_Type
  70
32
  10
1810670.00
  20
3199310.49
  30
2138
  0
VERTEX
  8
Unknown_Line_Type
  70
32
  10
1810669.03
  20
3199310.18
  30
2138
  0
VERTEX
  8
Unknown_Line_Type
  70
32
  10
1810664.40
  20
3199309.09
  30
2138
  0
VERTEX
  8
Unknown_Line_Type
  70
32
  10
1810662.60
  20
3199308.54
  30
2138
  0
VERTEX
  8
Unknown_Line_Type
  70
32
  10
1810660.85
  20
3199307.81
  30
2138
  0
VERTEX
  8
Unknown_Line_Type
  70
32
  10
1810659.24
  20
3199306.89
  30
2138
  0
VERTEX
  8
Unknown_Line_Type
  70
32
  10
1810657.84
  20
3199305.79
  30
2138
  0
VERTEX
  8
Unknown_Line_Type
  70
32
  10
1810656.70
  20
3199304.60
  30
2138
  0
VERTEX
  8
Unknown_Line_Type
  70
32
  10
1810655.77
  20
3199303.25
  30
2138
  0
VERTEX
  8
Unknown_Line_Type
  70
32
  10
1810654.27
  20
3199300.86
  30
2138
  0
VERTEX
  8
Unknown_Line_Type
  70
32
  10
1810652.93
  20
3199298.93
  30
2138
  0
VERTEX
  8
Unknown_Line_Type
  70
32
  10
1810652.19
  20
3199298.02
  30
2138
  0
VERTEX
  8
Unknown_Line_Type
  70
32
  10
1810650.13
  20
3199295.90
  30
2138
  0
VERTEX
  8
Unknown_Line_Type
  70
32
  10
1810649.25
  20
3199294.92
  30
2138
  0
VERTEX
  8
Unknown_Line_Type
  70
32
  10
1810645.51
  20
3199290.31
  30
2138
  0
VERTEX
  8
Unknown_Line_Type
  70
32
  10
1810644.45
  20
3199289.10
  30
2138
  0
VERTEX
  8
Unknown_Line_Type
  70
32
  10
1810643.35
  20
3199287.95
  30
2138
  0
VERTEX
  8
Unknown_Line_Type
  70
32
  10
1810642.18
  20
3199286.90
  30
2138
  0
VERTEX
  8
Unknown_Line_Type
  70
32
  10
1810640.93
  20
3199285.98
  30
2138
  0
VERTEX
  8
Unknown_Line_Type
  70
32
  10
1810639.63
  20
3199285.27
  30
2138
  0
VERTEX
  8
Unknown_Line_Type
  70
32
  10
1810638.26
  20
3199284.71
  30
2138
  0
VERTEX
  8
Unknown_Line_Type
  70
32
  10
1810636.82
  20
3199284.28
  30
2138
  0
VERTEX
  8
Unknown_Line_Type
  70
32
  10
1810635.34
  20
3199283.98
  30
2138
  0
VERTEX
  8
Unknown_Line_Type
  70
32
  10
1810633.84
  20
3199283.81
  30
2138
  0
VERTEX
  8
Unknown_Line_Type
  70
32
  10
1810632.28
  20
3199283.77
  30
2138
  0
VERTEX
  8
Unknown_Line_Type
  70
32
  10
1810627.56
  20
3199283.92
  30
2138
  0
VERTEX
  8
Unknown_Line_Type
  70
32
  10
1810625.98
  20
3199283.88
  30
2138
  0
VERTEX
  8
Unknown_Line_Type
  70
32
  10
1810624.16
  20
3199283.68
  30
2138
  0
VERTEX
  8
Unknown_Line_Type
  70
32
  10
1810622.37
  20
3199283.31
  30
2138
  0
VERTEX
  8
Unknown_Line_Type
  70
32
  10
1810620.60
  20
3199282.78
  30
2138
  0
VERTEX
  8
Unknown_Line_Type
  70
32
  10
1810619.03
  20
3199282.16
  30
2138
  0
VERTEX
  8
Unknown_Line_Type
  70
32
  10
1810617.49
  20
3199281.43
  30
2138
  0
VERTEX
  8
Unknown_Line_Type
  70
32
  10
1810612.93
  20
3199279.05
  30
2138
  0
VERTEX
  8
Unknown_Line_Type
  70
32
  10
1810611.39
  20
3199278.29
  30
2138
  0
VERTEX
  8
Unknown_Line_Type
  70
32
  10
1810609.82
  20
3199277.61
  30
2138
  0
VERTEX
  8
Unknown_Line_Type
  70
32
  10
1810608.30
  20
3199277.06
  30
2138
  0
VERTEX
  8
Unknown_Line_Type
  70
32
  10
1810606.76
  20
3199276.61
  30
2138
  0
VERTEX
  8
Unknown_Line_Type
  70
32
  10
1810605.19
  20
3199276.23
  30
2138
  0
VERTEX
  8
Unknown_Line_Type
  70
32
  10
1810603.62
  20
3199275.91
  30
2138
  0
VERTEX
  8
Unknown_Line_Type
  70
32
  10
1810599.96
  20
3199275.29
  30
2138
  0
VERTEX
  8
Unknown_Line_Type
  70
32
  10
1810598.48
  20
3199274.97
  30
2138
  0
VERTEX
  8
Unknown_Line_Type
  70
32
  10
1810597.01
  20
3199274.58
  30
2138
  0
VERTEX
  8
Unknown_Line_Type
  70
32
  10
1810595.54
  20
3199274.16
  30
2138
  0
VERTEX
  8
Unknown_Line_Type
  70
32
  10
1810592.59
  20
3199273.25
  30
2138
  0
VERTEX
  8
Unknown_Line_Type
  70
32
  10
1810586.94
  20
3199271.39
  30
2138
  0
VERTEX
  8
Unknown_Line_Type
  70
32
  10
1810585.70
  20
3199270.89
  30
2138
  0
VERTEX
  8
Unknown_Line_Type
  70
32
  10
1810584.32
  20
3199270.20
  30
2138
  0
VERTEX
  8
Unknown_Line_Type
  70
32
  10
1810582.99
  20
3199269.40
  30
2138
  0
VERTEX
  8
Unknown_Line_Type
  70
32
  10
1810581.69
  20
3199268.53
  30
2138
  0
VERTEX
  8
Unknown_Line_Type
  70
32
  10
1810579.14
  20
3199266.75
  30
2138
  0
VERTEX
  8
Unknown_Line_Type
  70
32
  10
1810577.77
  20
3199265.86
  30
2138
  0
VERTEX
  8
Unknown_Line_Type
  70
32
  10
1810576.37
  20
3199265.08
  30
2138
  0
VERTEX
  8
Unknown_Line_Type
  70
32
  10
1810574.94
  20
3199264.50
  30
2138
  0
VERTEX
  8
Unknown_Line_Type
  70
32
  10
1810573.79
  20
3199264.20
  30
2138
  0
VERTEX
  8
Unknown_Line_Type
  70
32
  10
1810572.61
  20
3199264.03
  30
2138
  0
VERTEX
  8
Unknown_Line_Type
  70
32
  10
1810568.72
  20
3199263.73
  30
2138
  0
VERTEX
  8
Unknown_Line_Type
  70
32
  10
1810567.41
  20
3199263.54
  30
2138
  0
VERTEX
  8
Unknown_Line_Type
  70
32
  10
1810566.16
  20
3199263.19
  30
2138
  0
VERTEX
  8
Unknown_Line_Type
  70
32
  10
1810565.29
  20
3199262.79
  30
2138
  0
VERTEX
  8
Unknown_Line_Type
  70
32
  10
1810564.46
  20
3199262.27
  30
2138
  0
VERTEX
  8
Unknown_Line_Type
  70
32
  10
1810563.79
  20
3199261.76
  30
2138
  0
VERTEX
  8
Unknown_Line_Type
  70
32
  10
1810563.14
  20
3199261.20
  30
2138
  0
VERTEX
  8
Unknown_Line_Type
  70
32
  10
1810561.97
  20
3199260.11
  30
2138
  0
VERTEX
  8
Unknown_Line_Type
  70
32
  10
1810558.31
  20
3199256.57
  30
2138
  0
VERTEX
  8
Unknown_Line_Type
  70
32
  10
1810557.02
  20
3199255.42
  30
2138
  0
VERTEX
  8
Unknown_Line_Type
  70
32
  10
1810555.68
  20
3199254.36
  30
2138
  0
VERTEX
  8
Unknown_Line_Type
  70
32
  10
1810554.29
  20
3199253.41
  30
2138
  0
VERTEX
  8
Unknown_Line_Type
  70
32
  10
1810552.81
  20
3199252.65
  30
2138
  0
VERTEX
  8
Unknown_Line_Type
  70
32
  10
1810551.16
  20
3199252.09
  30
2138
  0
VERTEX
  8
Unknown_Line_Type
  70
32
  10
1810549.43
  20
3199251.74
  30
2138
  0
VERTEX
  8
Unknown_Line_Type
  70
32
  10
1810547.64
  20
3199251.56
  30
2138
  0
VERTEX
  8
Unknown_Line_Type
  70
32
  10
1810545.80
  20
3199251.52
  30
2138
  0
VERTEX
  8
Unknown_Line_Type
  70
32
  10
1810544.11
  20
3199251.60
  30
2138
  0
VERTEX
  8
Unknown_Line_Type
  70
32
  10
1810542.40
  20
3199251.75
  30
2138
  0
VERTEX
  8
Unknown_Line_Type
  70
32
  10
1810540.68
  20
3199251.95
  30
2138
  0
VERTEX
  8
Unknown_Line_Type
  70
32
  10
1810535.52
  20
3199252.66
  30
2138
  0
VERTEX
  8
Unknown_Line_Type
  70
32
  10
1810533.33
  20
3199252.92
  30
2138
  0
VERTEX
  8
Unknown_Line_Type
  70
32
  10
1810531.82
  20
3199253.02
  30
2138
  0
VERTEX
  8
Unknown_Line_Type
  70
32
  10
1810530.31
  20
3199253.05
  30
2138
  0
VERTEX
  8
Unknown_Line_Type
  70
32
  10
1810528.82
  20
3199252.98
  30
2138
  0
VERTEX
  8
Unknown_Line_Type
  70
32
  10
1810527.35
  20
3199252.82
  30
2138
  0
VERTEX
  8
Unknown_Line_Type
  70
32
  10
1810525.62
  20
3199252.48
  30
2138
  0
VERTEX
  8
Unknown_Line_Type
  70
32
  10
1810523.92
  20
3199252.01
  30
2138
  0
VERTEX
  8
Unknown_Line_Type
  70
32
  10
1810522.28
  20
3199251.44
  30
2138
  0
VERTEX
  8
Unknown_Line_Type
  70
32
  10
1810520.78
  20
3199250.82
  30
2138
  0
VERTEX
  8
Unknown_Line_Type
  70
32
  10
1810519.34
  20
3199250.16
  30
2138
  0
VERTEX
  8
Unknown_Line_Type
  70
32
  10
1810517.97
  20
3199249.46
  30
2138
  0
VERTEX
  8
Unknown_Line_Type
  70
32
  10
1810514.71
  20
3199247.57
  30
2138
  0
VERTEX
  8
Unknown_Line_Type
  70
32
  10
1810513.70
  20
3199247.12
  30
2138
  0
VERTEX
  8
Unknown_Line_Type
  70
32
  10
1810512.41
  20
3199246.79
  30
2138
  0
VERTEX
  8
Unknown_Line_Type
  70
32
  10
1810511.02
  20
3199246.65
  30
2138
  0
VERTEX
  8
Unknown_Line_Type
  70
32
  10
1810509.74
  20
3199246.64
  30
2138
  0
VERTEX
  8
Unknown_Line_Type
  70
32
  10
1810508.42
  20
3199246.71
  30
2138
  0
VERTEX
  8
Unknown_Line_Type
  70
32
  10
1810507.06
  20
3199246.85
  30
2138
  0
VERTEX
  8
Unknown_Line_Type
  70
32
  10
1810500.69
  20
3199247.73
  30
2138
  0
VERTEX
  8
Unknown_Line_Type
  70
32
  10
1810499.01
  20
3199247.92
  30
2138
  0
VERTEX
  8
Unknown_Line_Type
  70
32
  10
1810497.32
  20
3199248.05
  30
2138
  0
VERTEX
  8
Unknown_Line_Type
  70
32
  10
1810495.63
  20
3199248.10
  30
2138
  0
VERTEX
  8
Unknown_Line_Type
  70
32
  10
1810493.76
  20
3199248.03
  30
2138
  0
VERTEX
  8
Unknown_Line_Type
  70
32
  10
1810490.03
  20
3199247.75
  30
2138
  0
VERTEX
  8
Unknown_Line_Type
  70
32
  10
1810488.16
  20
3199247.67
  30
2138
  0
VERTEX
  8
Unknown_Line_Type
  70
32
  10
1810486.82
  20
3199247.70
  30
2138
  0
VERTEX
  8
Unknown_Line_Type
  70
32
  10
1810485.10
  20
3199247.83
  30
2138
  0
VERTEX
  8
Unknown_Line_Type
  70
32
  10
1810483.39
  20
3199248.06
  30
2138
  0
VERTEX
  8
Unknown_Line_Type
  70
32
  10
1810481.69
  20
3199248.40
  30
2138
  0
VERTEX
  8
Unknown_Line_Type
  70
32
  10
1810479.88
  20
3199248.88
  30
2138
  0
VERTEX
  8
Unknown_Line_Type
  70
32
  10
1810478.09
  20
3199249.45
  30
2138
  0
VERTEX
  8
Unknown_Line_Type
  70
32
  10
1810476.31
  20
3199250.08
  30
2138
  0
VERTEX
  8
Unknown_Line_Type
  70
32
  10
1810471.39
  20
3199251.91
  30
2138
  0
VERTEX
  8
Unknown_Line_Type
  70
32
  10
1810468.23
  20
3199252.98
  30
2138
  0
VERTEX
  8
Unknown_Line_Type
  70
32
  10
1810466.64
  20
3199253.44
  30
2138
  0
VERTEX
  8
Unknown_Line_Type
  70
32
  10
1810464.77
  20
3199253.89
  30
2138
  0
VERTEX
  8
Unknown_Line_Type
  70
32
  10
1810462.88
  20
3199254.24
  30
2138
  0
VERTEX
  8
Unknown_Line_Type
  70
32
  10
1810460.98
  20
3199254.46
  30
2138
  0
VERTEX
  8
Unknown_Line_Type
  70
32
  10
1810459.30
  20
3199254.57
  30
2138
  0
VERTEX
  8
Unknown_Line_Type
  70
32
  10
1810455.65
  20
3199254.67
  30
2138
  0
VERTEX
  8
Unknown_Line_Type
  70
32
  10
1810454.47
  20
3199254.72
  30
2138
  0
VERTEX
  8
Unknown_Line_Type
  70
32
  10
1810453.30
  20
3199254.81
  30
2138
  0
VERTEX
  8
Unknown_Line_Type
  70
32
  10
1810451.57
  20
3199255.04
  30
2138
  0
VERTEX
  8
Unknown_Line_Type
  70
32
  10
1810448.14
  20
3199255.59
  30
2138
  0
VERTEX
  8
Unknown_Line_Type
  70
32
  10
1810446.52
  20
3199255.76
  30
2138
  0
VERTEX
  8
Unknown_Line_Type
  70
32
  10
1810440.63
  20
3199256.24
  30
2138
  0
VERTEX
  8
Unknown_Line_Type
  70
32
  10
1810431.19
  20
3199257.30
  30
2138
  0
VERTEX
  8
Unknown_Line_Type
  70
32
  10
1810429.16
  20
3199257.48
  30
2138
  0
SEQEND
  8
Unknown_Line_Type
  0
POLYLINE
  8
Unknown_Line_Type
  70
8
  66
1
 62
0
 39
0
  0
VERTEX
  8
Unknown_Line_Type
  70
32
  10
1810442.14
  20
3199246.22
  30
2140
  0
VERTEX
  8
Unknown_Line_Type
  70
32
  10
1810442.53
  20
3199246.32
  30
2140
  0
VERTEX
  8
Unknown_Line_Type
  70
32
  10
1810443.51
  20
3199246.27
  30
2140
  0
VERTEX
  8
Unknown_Line_Type
  70
32
  10
1810444.98
  20
3199246.04
  30
2140
  0
VERTEX
  8
Unknown_Line_Type
  70
32
  10
1810446.50
  20
3199245.68
  30
2140
  0
VERTEX
  8
Unknown_Line_Type
  70
32
  10
1810450.10
  20
3199244.64
  30
2140
  0
VERTEX
  8
Unknown_Line_Type
  70
32
  10
1810456.17
  20
3199242.76
  30
2140
  0
VERTEX
  8
Unknown_Line_Type
  70
32
  10
1810457.87
  20
3199242.30
  30
2140
  0
VERTEX
  8
Unknown_Line_Type
  70
32
  10
1810459.47
  20
3199241.94
  30
2140
  0
VERTEX
  8
Unknown_Line_Type
  70
32
  10
1810460.94
  20
3199241.68
  30
2140
  0
VERTEX
  8
Unknown_Line_Type
  70
32
  10
1810462.39
  20
3199241.49
  30
2140
  0
VERTEX
  8
Unknown_Line_Type
  70
32
  10
1810464.08
  20
3199241.32
  30
2140
  0
VERTEX
  8
Unknown_Line_Type
  70
32
  10
1810465.79
  20
3199241.22
  30
2140
  0
VERTEX
  8
Unknown_Line_Type
  70
32
  10
1810467.51
  20
3199241.16
  30
2140
  0
VERTEX
  8
Unknown_Line_Type
  70
32
  10
1810469.22
  20
3199241.14
  30
2140
  0
VERTEX
  8
Unknown_Line_Type
  70
32
  10
1810470.94
  20
3199241.17
  30
2140
  0
VERTEX
  8
Unknown_Line_Type
  70
32
  10
1810472.42
  20
3199241.23
  30
2140
  0
VERTEX
  8
Unknown_Line_Type
  70
32
  10
1810473.90
  20
3199241.33
  30
2140
  0
VERTEX
  8
Unknown_Line_Type
  70
32
  10
1810478.28
  20
3199241.75
  30
2140
  0
VERTEX
  8
Unknown_Line_Type
  70
32
  10
1810479.90
  20
3199241.82
  30
2140
  0
VERTEX
  8
Unknown_Line_Type
  70
32
  10
1810481.52
  20
3199241.83
  30
2140
  0
VERTEX
  8
Unknown_Line_Type
  70
32
  10
1810483.16
  20
3199241.79
  30
2140
  0
VERTEX
  8
Unknown_Line_Type
  70
32
  10
1810486.41
  20
3199241.64
  30
2140
  0
VERTEX
  8
Unknown_Line_Type
  70
32
  10
1810494.12
  20
3199241.20
  30
2140
  0
VERTEX
  8
Unknown_Line_Type
  70
32
  10
1810495.38
  20
3199241.10
  30
2140
  0
VERTEX
  8
Unknown_Line_Type
  70
32
  10
1810497.08
  20
3199240.89
  30
2140
  0
VERTEX
  8
Unknown_Line_Type
  70
32
  10
1810498.78
  20
3199240.61
  30
2140
  0
VERTEX
  8
Unknown_Line_Type
  70
32
  10
1810500.46
  20
3199240.27
  30
2140
  0
VERTEX
  8
Unknown_Line_Type
  70
32
  10
1810502.13
  20
3199239.87
  30
2140
  0
VERTEX
  8
Unknown_Line_Type
  70
32
  10
1810503.79
  20
3199239.44
  30
2140
  0
VERTEX
  8
Unknown_Line_Type
  70
32
  10
1810508.16
  20
3199238.23
  30
2140
  0
VERTEX
  8
Unknown_Line_Type
  70
32
  10
1810510.75
  20
3199237.65
  30
2140
  0
VERTEX
  8
Unknown_Line_Type
  70
32
  10
1810513.20
  20
3199237.18
  30
2140
  0
VERTEX
  8
Unknown_Line_Type
  70
32
  10
1810515.87
  20
3199236.71
  30
2140
  0
VERTEX
  8
Unknown_Line_Type
  70
32
  10
1810517.40
  20
3199236.48
  30
2140
  0
VERTEX
  8
Unknown_Line_Type
  70
32
  10
1810518.93
  20
3199236.29
  30
2140
  0
VERTEX
  8
Unknown_Line_Type
  70
32
  10
1810520.46
  20
3199236.14
  30
2140
  0
VERTEX
  8
Unknown_Line_Type
  70
32
  10
1810522.18
  20
3199236.04
  30
2140
  0
VERTEX
  8
Unknown_Line_Type
  70
32
  10
1810529.05
  20
3199235.86
  30
2140
  0
VERTEX
  8
Unknown_Line_Type
  70
32
  10
1810530.81
  20
3199235.90
  30
2140
  0
VERTEX
  8
Unknown_Line_Type
  70
32
  10
1810532.34
  20
3199236.07
  30
2140
  0
VERTEX
  8
Unknown_Line_Type
  70
32
  10
1810533.86
  20
3199236.36
  30
2140
  0
VERTEX
  8
Unknown_Line_Type
  70
32
  10
1810535.37
  20
3199236.76
  30
2140
  0
VERTEX
  8
Unknown_Line_Type
  70
32
  10
1810536.91
  20
3199237.25
  30
2140
  0
VERTEX
  8
Unknown_Line_Type
  70
32
  10
1810539.98
  20
3199238.32
  30
2140
  0
VERTEX
  8
Unknown_Line_Type
  70
32
  10
1810541.19
  20
3199238.70
  30
2140
  0
VERTEX
  8
Unknown_Line_Type
  70
32
  10
1810542.41
  20
3199239.03
  30
2140
  0
VERTEX
  8
Unknown_Line_Type
  70
32
  10
1810543.84
  20
3199239.31
  30
2140
  0
VERTEX
  8
Unknown_Line_Type
  70
32
  10
1810545.29
  20
3199239.52
  30
2140
  0
VERTEX
  8
Unknown_Line_Type
  70
32
  10
1810549.89
  20
3199240.04
  30
2140
  0
VERTEX
  8
Unknown_Line_Type
  70
32
  10
1810554.89
  20
3199240.67
  30
2140
  0
VERTEX
  8
Unknown_Line_Type
  70
32
  10
1810556.33
  20
3199240.81
  30
2140
  0
VERTEX
  8
Unknown_Line_Type
  70
32
  10
1810557.76
  20
3199240.92
  30
2140
  0
VERTEX
  8
Unknown_Line_Type
  70
32
  10
1810559.19
  20
3199240.96
  30
2140
  0
VERTEX
  8
Unknown_Line_Type
  70
32
  10
1810560.60
  20
3199240.93
  30
2140
  0
VERTEX
  8
Unknown_Line_Type
  70
32
  10
1810562.23
  20
3199240.77
  30
2140
  0
VERTEX
  8
Unknown_Line_Type
  70
32
  10
1810563.83
  20
3199240.53
  30
2140
  0
VERTEX
  8
Unknown_Line_Type
  70
32
  10
1810566.98
  20
3199240.00
  30
2140
  0
VERTEX
  8
Unknown_Line_Type
  70
32
  10
1810568.51
  20
3199239.81
  30
2140
  0
VERTEX
  8
Unknown_Line_Type
  70
32
  10
1810569.91
  20
3199239.74
  30
2140
  0
VERTEX
  8
Unknown_Line_Type
  70
32
  10
1810571.28
  20
3199239.85
  30
2140
  0
VERTEX
  8
Unknown_Line_Type
  70
32
  10
1810572.76
  20
3199240.22
  30
2140
  0
VERTEX
  8
Unknown_Line_Type
  70
32
  10
1810574.19
  20
3199240.81
  30
2140
  0
VERTEX
  8
Unknown_Line_Type
  70
32
  10
1810575.60
  20
3199241.55
  30
2140
  0
VERTEX
  8
Unknown_Line_Type
  70
32
  10
1810576.97
  20
3199242.37
  30
2140
  0
VERTEX
  8
Unknown_Line_Type
  70
32
  10
1810579.63
  20
3199244.07
  30
2140
  0
VERTEX
  8
Unknown_Line_Type
  70
32
  10
1810581.03
  20
3199244.88
  30
2140
  0
VERTEX
  8
Unknown_Line_Type
  70
32
  10
1810582.46
  20
3199245.49
  30
2140
  0
VERTEX
  8
Unknown_Line_Type
  70
32
  10
1810583.74
  20
3199245.78
  30
2140
  0
VERTEX
  8
Unknown_Line_Type
  70
32
  10
1810585.06
  20
3199245.90
  30
2140
  0
VERTEX
  8
Unknown_Line_Type
  70
32
  10
1810589.16
  20
3199245.91
  30
2140
  0
VERTEX
  8
Unknown_Line_Type
  70
32
  10
1810590.39
  20
3199245.98
  30
2140
  0
VERTEX
  8
Unknown_Line_Type
  70
32
  10
1810591.59
  20
3199246.18
  30
2140
  0
VERTEX
  8
Unknown_Line_Type
  70
32
  10
1810593.06
  20
3199246.67
  30
2140
  0
VERTEX
  8
Unknown_Line_Type
  70
32
  10
1810594.42
  20
3199247.42
  30
2140
  0
VERTEX
  8
Unknown_Line_Type
  70
32
  10
1810595.19
  20
3199247.99
  30
2140
  0
VERTEX
  8
Unknown_Line_Type
  70
32
  10
1810597.92
  20
3199250.42
  30
2140
  0
VERTEX
  8
Unknown_Line_Type
  70
32
  10
1810599.01
  20
3199251.20
  30
2140
  0
VERTEX
  8
Unknown_Line_Type
  70
32
  10
1810600.26
  20
3199251.82
  30
2140
  0
VERTEX
  8
Unknown_Line_Type
  70
32
  10
1810601.62
  20
3199252.25
  30
2140
  0
VERTEX
  8
Unknown_Line_Type
  70
32
  10
1810603.06
  20
3199252.51
  30
2140
  0
VERTEX
  8
Unknown_Line_Type
  70
32
  10
1810604.55
  20
3199252.61
  30
2140
  0
VERTEX
  8
Unknown_Line_Type
  70
32
  10
1810606.18
  20
3199252.53
  30
2140
  0
VERTEX
  8
Unknown_Line_Type
  70
32
  10
1810609.47
  20
3199252.14
  30
2140
  0
VERTEX
  8
Unknown_Line_Type
  70
32
  10
1810611.13
  20
3199252.01
  30
2140
  0
VERTEX
  8
Unknown_Line_Type
  70
32
  10
1810612.77
  20
3199252.05
  30
2140
  0
VERTEX
  8
Unknown_Line_Type
  70
32
  10
1810614.19
  20
3199252.29
  30
2140
  0
VERTEX
  8
Unknown_Line_Type
  70
32
  10
1810615.60
  20
3199252.70
  30
2140
  0
VERTEX
  8
Unknown_Line_Type
  70
32
  10
1810616.97
  20
3199253.27
  30
2140
  0
VERTEX
  8
Unknown_Line_Type
  70
32
  10
1810618.31
  20
3199253.98
  30
2140
  0
VERTEX
  8
Unknown_Line_Type
  70
32
  10
1810619.71
  20
3199254.90
  30
2140
  0
VERTEX
  8
Unknown_Line_Type
  70
32
  10
1810621.09
  20
3199255.93
  30
2140
  0
VERTEX
  8
Unknown_Line_Type
  70
32
  10
1810623.86
  20
3199258.07
  30
2140
  0
VERTEX
  8
Unknown_Line_Type
  70
32
  10
1810625.11
  20
3199258.97
  30
2140
  0
VERTEX
  8
Unknown_Line_Type
  70
32
  10
1810626.39
  20
3199259.82
  30
2140
  0
VERTEX
  8
Unknown_Line_Type
  70
32
  10
1810627.71
  20
3199260.64
  30
2140
  0
VERTEX
  8
Unknown_Line_Type
  70
32
  10
1810629.06
  20
3199261.40
  30
2140
  0
VERTEX
  8
Unknown_Line_Type
  70
32
  10
1810630.66
  20
3199262.22
  30
2140
  0
VERTEX
  8
Unknown_Line_Type
  70
32
  10
1810632.30
  20
3199262.97
  30
2140
  0
VERTEX
  8
Unknown_Line_Type
  70
32
  10
1810633.96
  20
3199263.64
  30
2140
  0
VERTEX
  8
Unknown_Line_Type
  70
32
  10
1810635.60
  20
3199264.22
  30
2140
  0
VERTEX
  8
Unknown_Line_Type
  70
32
  10
1810637.26
  20
3199264.69
  30
2140
  0
VERTEX
  8
Unknown_Line_Type
  70
32
  10
1810639.00
  20
3199265.03
  30
2140
  0
VERTEX
  8
Unknown_Line_Type
  70
32
  10
1810640.76
  20
3199265.26
  30
2140
  0
VERTEX
  8
Unknown_Line_Type
  70
32
  10
1810647.13
  20
3199265.89
  30
2140
  0
VERTEX
  8
Unknown_Line_Type
  70
32
  10
1810648.95
  20
3199266.13
  30
2140
  0
VERTEX
  8
Unknown_Line_Type
  70
32
  10
1810650.74
  20
3199266.44
  30
2140
  0
VERTEX
  8
Unknown_Line_Type
  70
32
  10
1810652.50
  20
3199266.86
  30
2140
  0
VERTEX
  8
Unknown_Line_Type
  70
32
  10
1810654.19
  20
3199267.39
  30
2140
  0
VERTEX
  8
Unknown_Line_Type
  70
32
  10
1810655.83
  20
3199268.05
  30
2140
  0
VERTEX
  8
Unknown_Line_Type
  70
32
  10
1810657.43
  20
3199268.81
  30
2140
  0
VERTEX
  8
Unknown_Line_Type
  70
32
  10
1810658.61
  20
3199269.44
  30
2140
  0
VERTEX
  8
Unknown_Line_Type
  70
32
  10
1810660.93
  20
3199270.78
  30
2140
  0
VERTEX
  8
Unknown_Line_Type
  70
32
  10
1810663.56
  20
3199272.21
  30
2140
  0
VERTEX
  8
Unknown_Line_Type
  70
32
  10
1810665.08
  20
3199272.99
  30
2140
  0
VERTEX
  8
Unknown_Line_Type
  70
32
  10
1810666.62
  20
3199273.71
  30
2140
  0
VERTEX
  8
Unknown_Line_Type
  70
32
  10
1810668.19
  20
3199274.33
  30
2140
  0
VERTEX
  8
Unknown_Line_Type
  70
32
  10
1810669.78
  20
3199274.81
  30
2140
  0
VERTEX
  8
Unknown_Line_Type
  70
32
  10
1810671.41
  20
3199275.19
  30
2140
  0
VERTEX
  8
Unknown_Line_Type
  70
32
  10
1810673.04
  20
3199275.49
  30
2140
  0
VERTEX
  8
Unknown_Line_Type
  70
32
  10
1810676.05
  20
3199275.98
  30
2140
  0
VERTEX
  8
Unknown_Line_Type
  70
32
  10
1810677.52
  20
3199276.29
  30
2140
  0
VERTEX
  8
Unknown_Line_Type
  70
32
  10
1810678.95
  20
3199276.71
  30
2140
  0
VERTEX
  8
Unknown_Line_Type
  70
32
  10
1810680.43
  20
3199277.33
  30
2140
  0
VERTEX
  8
Unknown_Line_Type
  70
32
  10
1810681.85
  20
3199278.11
  30
2140
  0
VERTEX
  8
Unknown_Line_Type
  70
32
  10
1810683.24
  20
3199279.00
  30
2140
  0
VERTEX
  8
Unknown_Line_Type
  70
32
  10
1810684.60
  20
3199279.99
  30
2140
  0
VERTEX
  8
Unknown_Line_Type
  70
32
  10
1810685.93
  20
3199281.04
  30
2140
  0
VERTEX
  8
Unknown_Line_Type
  70
32
  10
1810687.24
  20
3199282.15
  30
2140
  0
VERTEX
  8
Unknown_Line_Type
  70
32
  10
1810689.81
  20
3199284.48
  30
2140
  0
VERTEX
  8
Unknown_Line_Type
  70
32
  10
1810694.01
  20
3199288.57
  30
2140
  0
VERTEX
  8
Unknown_Line_Type
  70
32
  10
1810697.04
  20
3199291.44
  30
2140
  0
VERTEX
  8
Unknown_Line_Type
  70
32
  10
1810698.23
  20
3199292.62
  30
2140
  0
VERTEX
  8
Unknown_Line_Type
  70
32
  10
1810699.38
  20
3199293.82
  30
2140
  0
VERTEX
  8
Unknown_Line_Type
  70
32
  10
1810700.50
  20
3199295.06
  30
2140
  0
VERTEX
  8
Unknown_Line_Type
  70
32
  10
1810701.57
  20
3199296.31
  30
2140
  0
VERTEX
  8
Unknown_Line_Type
  70
32
  10
1810702.59
  20
3199297.60
  30
2140
  0
VERTEX
  8
Unknown_Line_Type
  70
32
  10
1810703.53
  20
3199298.90
  30
2140
  0
VERTEX
  8
Unknown_Line_Type
  70
32
  10
1810706.21
  20
3199302.98
  30
2140
  0
VERTEX
  8
Unknown_Line_Type
  70
32
  10
1810707.14
  20
3199304.16
  30
2140
  0
VERTEX
  8
Unknown_Line_Type
  70
32
  10
1810708.20
  20
3199305.15
  30
2140
  0
VERTEX
  8
Unknown_Line_Type
  70
32
  10
1810709.27
  20
3199305.81
  30
2140
  0
VERTEX
  8
Unknown_Line_Type
  70
32
  10
1810710.47
  20
3199306.30
  30
2140
  0
VERTEX
  8
Unknown_Line_Type
  70
32
  10
1810711.92
  20
3199306.69
  30
2140
  0
VERTEX
  8
Unknown_Line_Type
  70
32
  10
1810713.76
  20
3199307.07
  30
2140
  0
VERTEX
  8
Unknown_Line_Type
  70
32
  10
1810717.84
  20
3199307.75
  30
2140
  0
VERTEX
  8
Unknown_Line_Type
  70
32
  10
1810719.87
  20
3199308.13
  30
2140
  0
VERTEX
  8
Unknown_Line_Type
  70
32
  10
1810721.68
  20
3199308.56
  30
2140
  0
VERTEX
  8
Unknown_Line_Type
  70
32
  10
1810723.30
  20
3199309.02
  30
2140
  0
VERTEX
  8
Unknown_Line_Type
  70
32
  10
1810724.66
  20
3199309.52
  30
2140
  0
VERTEX
  8
Unknown_Line_Type
  70
32
  10
1810725.53
  20
3199309.93
  30
2140
  0
VERTEX
  8
Unknown_Line_Type
  70
32
  10
1810726.16
  20
3199310.32
  30
2140
  0
VERTEX
  8
Unknown_Line_Type
  70
32
  10
1810726.50
  20
3199310.66
  30
2140
  0
VERTEX
  8
Unknown_Line_Type
  70
32
  10
1810726.51
  20
3199311.00
  30
2140
  0
SEQEND
  8
Unknown_Line_Type
  0
POLYLINE
  8
Unknown_Line_Type
  70
8
  66
1
 62
0
 39
0
  0
VERTEX
  8
Unknown_Line_Type
  70
32
  10
1810460.19
  20
3199230.57
  30
2142
  0
VERTEX
  8
Unknown_Line_Type
  70
32
  10
1810460.53
  20
3199230.62
  30
2142
  0
VERTEX
  8
Unknown_Line_Type
  70
32
  10
1810461.51
  20
3199230.68
  30
2142
  0
VERTEX
  8
Unknown_Line_Type
  70
32
  10
1810463.02
  20
3199230.72
  30
2142
  0
VERTEX
  8
Unknown_Line_Type
  70
32
  10
1810464.88
  20
3199230.69
  30
2142
  0
VERTEX
  8
Unknown_Line_Type
  70
32
  10
1810467.03
  20
3199230.59
  30
2142
  0
VERTEX
  8
Unknown_Line_Type
  70
32
  10
1810469.36
  20
3199230.38
  30
2142
  0
VERTEX
  8
Unknown_Line_Type
  70
32
  10
1810470.72
  20
3199230.21
  30
2142
  0
VERTEX
  8
Unknown_Line_Type
  70
32
  10
1810472.08
  20
3199229.99
  30
2142
  0
VERTEX
  8
Unknown_Line_Type
  70
32
  10
1810473.62
  20
3199229.69
  30
2142
  0
VERTEX
  8
Unknown_Line_Type
  70
32
  10
1810475.13
  20
3199229.33
  30
2142
  0
VERTEX
  8
Unknown_Line_Type
  70
32
  10
1810477.08
  20
3199228.78
  30
2142
  0
VERTEX
  8
Unknown_Line_Type
  70
32
  10
1810478.86
  20
3199228.18
  30
2142
  0
VERTEX
  8
Unknown_Line_Type
  70
32
  10
1810480.42
  20
3199227.56
  30
2142
  0
VERTEX
  8
Unknown_Line_Type
  70
32
  10
1810483.42
  20
3199226.22
  30
2142
  0
VERTEX
  8
Unknown_Line_Type
  70
32
  10
1810485.22
  20
3199225.34
  30
2142
  0
VERTEX
  8
Unknown_Line_Type
  70
32
  10
1810488.76
  20
3199223.48
  30
2142
  0
VERTEX
  8
Unknown_Line_Type
  70
32
  10
1810493.36
  20
3199220.87
  30
2142
  0
VERTEX
  8
Unknown_Line_Type
  70
32
  10
1810494.78
  20
3199220.11
  30
2142
  0
VERTEX
  8
Unknown_Line_Type
  70
32
  10
1810496.24
  20
3199219.43
  30
2142
  0
VERTEX
  8
Unknown_Line_Type
  70
32
  10
1810497.67
  20
3199218.85
  30
2142
  0
VERTEX
  8
Unknown_Line_Type
  70
32
  10
1810499.06
  20
3199218.40
  30
2142
  0
VERTEX
  8
Unknown_Line_Type
  70
32
  10
1810500.37
  20
3199218.08
  30
2142
  0
VERTEX
  8
Unknown_Line_Type
  70
32
  10
1810501.57
  20
3199217.94
  30
2142
  0
VERTEX
  8
Unknown_Line_Type
  70
32
  10
1810502.62
  20
3199218.01
  30
2142
  0
VERTEX
  8
Unknown_Line_Type
  70
32
  10
1810503.46
  20
3199218.35
  30
2142
  0
VERTEX
  8
Unknown_Line_Type
  70
32
  10
1810504.08
  20
3199219.02
  30
2142
  0
VERTEX
  8
Unknown_Line_Type
  70
32
  10
1810504.55
  20
3199219.94
  30
2142
  0
VERTEX
  8
Unknown_Line_Type
  70
32
  10
1810505.44
  20
3199222.12
  30
2142
  0
VERTEX
  8
Unknown_Line_Type
  70
32
  10
1810506.01
  20
3199223.14
  30
2142
  0
VERTEX
  8
Unknown_Line_Type
  70
32
  10
1810506.73
  20
3199224.05
  30
2142
  0
VERTEX
  8
Unknown_Line_Type
  70
32
  10
1810507.62
  20
3199224.81
  30
2142
  0
VERTEX
  8
Unknown_Line_Type
  70
32
  10
1810508.88
  20
3199225.40
  30
2142
  0
VERTEX
  8
Unknown_Line_Type
  70
32
  10
1810510.32
  20
3199225.72
  30
2142
  0
VERTEX
  8
Unknown_Line_Type
  70
32
  10
1810511.60
  20
3199225.79
  30
2142
  0
VERTEX
  8
Unknown_Line_Type
  70
32
  10
1810512.92
  20
3199225.72
  30
2142
  0
VERTEX
  8
Unknown_Line_Type
  70
32
  10
1810514.26
  20
3199225.52
  30
2142
  0
VERTEX
  8
Unknown_Line_Type
  70
32
  10
1810515.58
  20
3199225.23
  30
2142
  0
VERTEX
  8
Unknown_Line_Type
  70
32
  10
1810516.87
  20
3199224.83
  30
2142
  0
VERTEX
  8
Unknown_Line_Type
  70
32
  10
1810518.11
  20
3199224.31
  30
2142
  0
VERTEX
  8
Unknown_Line_Type
  70
32
  10
1810519.28
  20
3199223.67
  30
2142
  0
VERTEX
  8
Unknown_Line_Type
  70
32
  10
1810520.21
  20
3199223.01
  30
2142
  0
VERTEX
  8
Unknown_Line_Type
  70
32
  10
1810522.78
  20
3199220.89
  30
2142
  0
VERTEX
  8
Unknown_Line_Type
  70
32
  10
1810523.58
  20
3199220.29
  30
2142
  0
VERTEX
  8
Unknown_Line_Type
  70
32
  10
1810524.69
  20
3199219.57
  30
2142
  0
VERTEX
  8
Unknown_Line_Type
  70
32
  10
1810525.86
  20
3199218.94
  30
2142
  0
VERTEX
  8
Unknown_Line_Type
  70
32
  10
1810527.08
  20
3199218.39
  30
2142
  0
VERTEX
  8
Unknown_Line_Type
  70
32
  10
1810528.37
  20
3199217.95
  30
2142
  0
VERTEX
  8
Unknown_Line_Type
  70
32
  10
1810529.69
  20
3199217.62
  30
2142
  0
VERTEX
  8
Unknown_Line_Type
  70
32
  10
1810530.87
  20
3199217.44
  30
2142
  0
VERTEX
  8
Unknown_Line_Type
  70
32
  10
1810532.06
  20
3199217.37
  30
2142
  0
VERTEX
  8
Unknown_Line_Type
  70
32
  10
1810533.26
  20
3199217.41
  30
2142
  0
VERTEX
  8
Unknown_Line_Type
  70
32
  10
1810534.97
  20
3199217.67
  30
2142
  0
VERTEX
  8
Unknown_Line_Type
  70
32
  10
1810536.67
  20
3199218.12
  30
2142
  0
VERTEX
  8
Unknown_Line_Type
  70
32
  10
1810538.38
  20
3199218.68
  30
2142
  0
VERTEX
  8
Unknown_Line_Type
  70
32
  10
1810543.43
  20
3199220.44
  30
2142
  0
VERTEX
  8
Unknown_Line_Type
  70
32
  10
1810545.12
  20
3199220.99
  30
2142
  0
VERTEX
  8
Unknown_Line_Type
  70
32
  10
1810546.73
  20
3199221.46
  30
2142
  0
VERTEX
  8
Unknown_Line_Type
  70
32
  10
1810548.29
  20
3199221.86
  30
2142
  0
VERTEX
  8
Unknown_Line_Type
  70
32
  10
1810551.62
  20
3199222.61
  30
2142
  0
VERTEX
  8
Unknown_Line_Type
  70
32
  10
1810553.29
  20
3199222.93
  30
2142
  0
VERTEX
  8
Unknown_Line_Type
  70
32
  10
1810554.98
  20
3199223.22
  30
2142
  0
VERTEX
  8
Unknown_Line_Type
  70
32
  10
1810556.67
  20
3199223.45
  30
2142
  0
VERTEX
  8
Unknown_Line_Type
  70
32
  10
1810558.36
  20
3199223.62
  30
2142
  0
VERTEX
  8
Unknown_Line_Type
  70
32
  10
1810559.97
  20
3199223.71
  30
2142
  0
VERTEX
  8
Unknown_Line_Type
  70
32
  10
1810561.57
  20
3199223.75
  30
2142
  0
VERTEX
  8
Unknown_Line_Type
  70
32
  10
1810564.40
  20
3199223.68
  30
2142
  0
VERTEX
  8
Unknown_Line_Type
  70
32
  10
1810568.81
  20
3199223.37
  30
2142
  0
VERTEX
  8
Unknown_Line_Type
  70
32
  10
1810570.68
  20
3199223.28
  30
2142
  0
VERTEX
  8
Unknown_Line_Type
  70
32
  10
1810572.56
  20
3199223.25
  30
2142
  0
VERTEX
  8
Unknown_Line_Type
  70
32
  10
1810574.43
  20
3199223.28
  30
2142
  0
VERTEX
  8
Unknown_Line_Type
  70
32
  10
1810576.29
  20
3199223.38
  30
2142
  0
VERTEX
  8
Unknown_Line_Type
  70
32
  10
1810578.12
  20
3199223.57
  30
2142
  0
VERTEX
  8
Unknown_Line_Type
  70
32
  10
1810579.92
  20
3199223.85
  30
2142
  0
VERTEX
  8
Unknown_Line_Type
  70
32
  10
1810581.67
  20
3199224.26
  30
2142
  0
VERTEX
  8
Unknown_Line_Type
  70
32
  10
1810583.21
  20
3199224.75
  30
2142
  0
VERTEX
  8
Unknown_Line_Type
  70
32
  10
1810584.71
  20
3199225.32
  30
2142
  0
VERTEX
  8
Unknown_Line_Type
  70
32
  10
1810589.00
  20
3199227.10
  30
2142
  0
VERTEX
  8
Unknown_Line_Type
  70
32
  10
1810590.38
  20
3199227.58
  30
2142
  0
VERTEX
  8
Unknown_Line_Type
  70
32
  10
1810593.75
  20
3199228.52
  30
2142
  0
VERTEX
  8
Unknown_Line_Type
  70
32
  10
1810594.68
  20
3199228.89
  30
2142
  0
VERTEX
  8
Unknown_Line_Type
  70
32
  10
1810595.73
  20
3199229.49
  30
2142
  0
VERTEX
  8
Unknown_Line_Type
  70
32
  10
1810596.75
  20
3199230.23
  30
2142
  0
VERTEX
  8
Unknown_Line_Type
  70
32
  10
1810599.80
  20
3199232.80
  30
2142
  0
VERTEX
  8
Unknown_Line_Type
  70
32
  10
1810600.75
  20
3199233.52
  30
2142
  0
VERTEX
  8
Unknown_Line_Type
  70
32
  10
1810601.72
  20
3199234.20
  30
2142
  0
VERTEX
  8
Unknown_Line_Type
  70
32
  10
1810605.37
  20
3199236.64
  30
2142
  0
VERTEX
  8
Unknown_Line_Type
  70
32
  10
1810606.41
  20
3199237.37
  30
2142
  0
VERTEX
  8
Unknown_Line_Type
  70
32
  10
1810607.43
  20
3199238.00
  30
2142
  0
VERTEX
  8
Unknown_Line_Type
  70
32
  10
1810608.48
  20
3199238.45
  30
2142
  0
VERTEX
  8
Unknown_Line_Type
  70
32
  10
1810609.62
  20
3199238.63
  30
2142
  0
VERTEX
  8
Unknown_Line_Type
  70
32
  10
1810610.84
  20
3199238.61
  30
2142
  0
VERTEX
  8
Unknown_Line_Type
  70
32
  10
1810612.13
  20
3199238.46
  30
2142
  0
VERTEX
  8
Unknown_Line_Type
  70
32
  10
1810614.88
  20
3199238.03
  30
2142
  0
VERTEX
  8
Unknown_Line_Type
  70
32
  10
1810616.32
  20
3199237.88
  30
2142
  0
VERTEX
  8
Unknown_Line_Type
  70
32
  10
1810617.80
  20
3199237.83
  30
2142
  0
VERTEX
  8
Unknown_Line_Type
  70
32
  10
1810622.34
  20
3199237.93
  30
2142
  0
VERTEX
  8
Unknown_Line_Type
  70
32
  10
1810623.85
  20
3199237.90
  30
2142
  0
VERTEX
  8
Unknown_Line_Type
  70
32
  10
1810625.34
  20
3199237.81
  30
2142
  0
VERTEX
  8
Unknown_Line_Type
  70
32
  10
1810626.78
  20
3199237.65
  30
2142
  0
VERTEX
  8
Unknown_Line_Type
  70
32
  10
1810628.16
  20
3199237.42
  30
2142
  0
VERTEX
  8
Unknown_Line_Type
  70
32
  10
1810630.23
  20
3199236.98
  30
2142
  0
VERTEX
  8
Unknown_Line_Type
  70
32
  10
1810631.26
  20
3199236.84
  30
2142
  0
VERTEX
  8
Unknown_Line_Type
  70
32
  10
1810632.46
  20
3199236.82
  30
2142
  0
VERTEX
  8
Unknown_Line_Type
  70
32
  10
1810633.72
  20
3199236.92
  30
2142
  0
VERTEX
  8
Unknown_Line_Type
  70
32
  10
1810635.01
  20
3199237.11
  30
2142
  0
VERTEX
  8
Unknown_Line_Type
  70
32
  10
1810636.33
  20
3199237.34
  30
2142
  0
VERTEX
  8
Unknown_Line_Type
  70
32
  10
1810639.06
  20
3199237.89
  30
2142
  0
VERTEX
  8
Unknown_Line_Type
  70
32
  10
1810640.45
  20
3199238.21
  30
2142
  0
VERTEX
  8
Unknown_Line_Type
  70
32
  10
1810641.85
  20
3199238.58
  30
2142
  0
VERTEX
  8
Unknown_Line_Type
  70
32
  10
1810643.24
  20
3199239.01
  30
2142
  0
VERTEX
  8
Unknown_Line_Type
  70
32
  10
1810644.60
  20
3199239.49
  30
2142
  0
VERTEX
  8
Unknown_Line_Type
  70
32
  10
1810648.31
  20
3199240.98
  30
2142
  0
VERTEX
  8
Unknown_Line_Type
  70
32
  10
1810649.73
  20
3199241.44
  30
2142
  0
VERTEX
  8
Unknown_Line_Type
  70
32
  10
1810651.20
  20
3199241.84
  30
2142
  0
VERTEX
  8
Unknown_Line_Type
  70
32
  10
1810657.78
  20
3199243.43
  30
2142
  0
VERTEX
  8
Unknown_Line_Type
  70
32
  10
1810659.48
  20
3199243.87
  30
2142
  0
VERTEX
  8
Unknown_Line_Type
  70
32
  10
1810661.16
  20
3199244.35
  30
2142
  0
VERTEX
  8
Unknown_Line_Type
  70
32
  10
1810662.82
  20
3199244.89
  30
2142
  0
VERTEX
  8
Unknown_Line_Type
  70
32
  10
1810664.45
  20
3199245.50
  30
2142
  0
VERTEX
  8
Unknown_Line_Type
  70
32
  10
1810666.02
  20
3199246.22
  30
2142
  0
VERTEX
  8
Unknown_Line_Type
  70
32
  10
1810667.53
  20
3199247.07
  30
2142
  0
VERTEX
  8
Unknown_Line_Type
  70
32
  10
1810668.99
  20
3199248.01
  30
2142
  0
VERTEX
  8
Unknown_Line_Type
  70
32
  10
1810670.41
  20
3199249.03
  30
2142
  0
VERTEX
  8
Unknown_Line_Type
  70
32
  10
1810673.22
  20
3199251.19
  30
2142
  0
VERTEX
  8
Unknown_Line_Type
  70
32
  10
1810677.49
  20
3199254.55
  30
2142
  0
VERTEX
  8
Unknown_Line_Type
  70
32
  10
1810678.95
  20
3199255.58
  30
2142
  0
VERTEX
  8
Unknown_Line_Type
  70
32
  10
1810680.45
  20
3199256.49
  30
2142
  0
VERTEX
  8
Unknown_Line_Type
  70
32
  10
1810682.01
  20
3199257.23
  30
2142
  0
VERTEX
  8
Unknown_Line_Type
  70
32
  10
1810683.62
  20
3199257.75
  30
2142
  0
VERTEX
  8
Unknown_Line_Type
  70
32
  10
1810685.30
  20
3199258.11
  30
2142
  0
VERTEX
  8
Unknown_Line_Type
  70
32
  10
1810687.03
  20
3199258.38
  30
2142
  0
VERTEX
  8
Unknown_Line_Type
  70
32
  10
1810690.56
  20
3199258.84
  30
2142
  0
VERTEX
  8
Unknown_Line_Type
  70
32
  10
1810692.40
  20
3199259.14
  30
2142
  0
VERTEX
  8
Unknown_Line_Type
  70
32
  10
1810694.23
  20
3199259.52
  30
2142
  0
VERTEX
  8
Unknown_Line_Type
  70
32
  10
1810696.05
  20
3199259.97
  30
2142
  0
VERTEX
  8
Unknown_Line_Type
  70
32
  10
1810697.84
  20
3199260.53
  30
2142
  0
VERTEX
  8
Unknown_Line_Type
  70
32
  10
1810699.33
  20
3199261.11
  30
2142
  0
VERTEX
  8
Unknown_Line_Type
  70
32
  10
1810700.79
  20
3199261.77
  30
2142
  0
VERTEX
  8
Unknown_Line_Type
  70
32
  10
1810702.37
  20
3199262.61
  30
2142
  0
VERTEX
  8
Unknown_Line_Type
  70
32
  10
1810703.89
  20
3199263.54
  30
2142
  0
VERTEX
  8
Unknown_Line_Type
  70
32
  10
1810705.37
  20
3199264.54
  30
2142
  0
VERTEX
  8
Unknown_Line_Type
  70
32
  10
1810706.79
  20
3199265.58
  30
2142
  0
VERTEX
  8
Unknown_Line_Type
  70
32
  10
1810709.29
  20
3199267.57
  30
2142
  0
VERTEX
  8
Unknown_Line_Type
  70
32
  10
1810714.71
  20
3199272.04
  30
2142
  0
VERTEX
  8
Unknown_Line_Type
  70
32
  10
1810716.11
  20
3199273.33
  30
2142
  0
VERTEX
  8
Unknown_Line_Type
  70
32
  10
1810717.21
  20
3199274.46
  30
2142
  0
VERTEX
  8
Unknown_Line_Type
  70
32
  10
1810718.25
  20
3199275.65
  30
2142
  0
VERTEX
  8
Unknown_Line_Type
  70
32
  10
1810719.24
  20
3199276.89
  30
2142
  0
VERTEX
  8
Unknown_Line_Type
  70
32
  10
1810720.20
  20
3199278.17
  30
2142
  0
VERTEX
  8
Unknown_Line_Type
  70
32
  10
1810721.28
  20
3199279.71
  30
2142
  0
VERTEX
  8
Unknown_Line_Type
  70
32
  10
1810725.37
  20
3199285.97
  30
2142
  0
VERTEX
  8
Unknown_Line_Type
  70
32
  10
1810726.22
  20
3199287.20
  30
2142
  0
VERTEX
  8
Unknown_Line_Type
  70
32
  10
1810727.11
  20
3199288.39
  30
2142
  0
VERTEX
  8
Unknown_Line_Type
  70
32
  10
1810728.06
  20
3199289.51
  30
2142
  0
VERTEX
  8
Unknown_Line_Type
  70
32
  10
1810729.15
  20
3199290.59
  30
2142
  0
VERTEX
  8
Unknown_Line_Type
  70
32
  10
1810730.32
  20
3199291.58
  30
2142
  0
VERTEX
  8
Unknown_Line_Type
  70
32
  10
1810731.74
  20
3199292.59
  30
2142
  0
VERTEX
  8
Unknown_Line_Type
  70
32
  10
1810733.23
  20
3199293.50
  30
2142
  0
VERTEX
  8
Unknown_Line_Type
  70
32
  10
1810734.76
  20
3199294.33
  30
2142
  0
VERTEX
  8
Unknown_Line_Type
  70
32
  10
1810737.54
  20
3199295.74
  30
2142
  0
VERTEX
  8
Unknown_Line_Type
  70
32
  10
1810738.89
  20
3199296.54
  30
2142
  0
VERTEX
  8
Unknown_Line_Type
  70
32
  10
1810740.25
  20
3199297.46
  30
2142
  0
VERTEX
  8
Unknown_Line_Type
  70
32
  10
1810741.70
  20
3199298.62
  30
2142
  0
VERTEX
  8
Unknown_Line_Type
  70
32
  10
1810743.21
  20
3199299.98
  30
2142
  0
VERTEX
  8
Unknown_Line_Type
  70
32
  10
1810744.71
  20
3199301.49
  30
2142
  0
VERTEX
  8
Unknown_Line_Type
  70
32
  10
1810746.16
  20
3199303.10
  30
2142
  0
VERTEX
  8
Unknown_Line_Type
  70
32
  10
1810747.53
  20
3199304.72
  30
2142
  0
VERTEX
  8
Unknown_Line_Type
  70
32
  10
1810751.79
  20
3199310.08
  30
2142
  0
VERTEX
  8
Unknown_Line_Type
  70
32
  10
1810752.37
  20
3199310.77
  30
2142
  0
VERTEX
  8
Unknown_Line_Type
  70
32
  10
1810752.60
  20
3199311.00
  30
2142
  0
SEQEND
  8
Unknown_Line_Type
  0
POLYLINE
  8
Unknown_Line_Type
  70
8
  66
1
 62
0
 39
0
  0
VERTEX
  8
Unknown_Line_Type
  70
32
  10
1810756.00
  20
3199281.05
  30
2144
  0
VERTEX
  8
Unknown_Line_Type
  70
32
  10
1810755.70
  20
3199280.48
  30
2144
  0
VERTEX
  8
Unknown_Line_Type
  70
32
  10
1810754.86
  20
3199279.00
  30
2144
  0
VERTEX
  8
Unknown_Line_Type
  70
32
  10
1810753.94
  20
3199277.58
  30
2144
  0
VERTEX
  8
Unknown_Line_Type
  70
32
  10
1810752.97
  20
3199276.30
  30
2144
  0
VERTEX
  8
Unknown_Line_Type
  70
32
  10
1810751.91
  20
3199275.10
  30
2144
  0
VERTEX
  8
Unknown_Line_Type
  70
32
  10
1810750.79
  20
3199273.97
  30
2144
  0
VERTEX
  8
Unknown_Line_Type
  70
32
  10
1810749.60
  20
3199272.92
  30
2144
  0
VERTEX
  8
Unknown_Line_Type
  70
32
  10
1810748.36
  20
3199271.96
  30
2144
  0
VERTEX
  8
Unknown_Line_Type
  70
32
  10
1810747.06
  20
3199271.10
  30
2144
  0
VERTEX
  8
Unknown_Line_Type
  70
32
  10
1810746.24
  20
3199270.63
  30
2144
  0
VERTEX
  8
Unknown_Line_Type
  70
32
  10
1810745.41
  20
3199270.22
  30
2144
  0
VERTEX
  8
Unknown_Line_Type
  70
32
  10
1810744.24
  20
3199269.73
  30
2144
  0
VERTEX
  8
Unknown_Line_Type
  70
32
  10
1810743.06
  20
3199269.35
  30
2144
  0
VERTEX
  8
Unknown_Line_Type
  70
32
  10
1810741.36
  20
3199269.00
  30
2144
  0
VERTEX
  8
Unknown_Line_Type
  70
32
  10
1810737.96
  20
3199268.53
  30
2144
  0
VERTEX
  8
Unknown_Line_Type
  70
32
  10
1810736.33
  20
3199268.17
  30
2144
  0
VERTEX
  8
Unknown_Line_Type
  70
32
  10
1810735.09
  20
3199267.71
  30
2144
  0
VERTEX
  8
Unknown_Line_Type
  70
32
  10
1810734.23
  20
3199267.27
  30
2144
  0
VERTEX
  8
Unknown_Line_Type
  70
32
  10
1810733.42
  20
3199266.74
  30
2144
  0
VERTEX
  8
Unknown_Line_Type
  70
32
  10
1810732.31
  20
3199265.79
  30
2144
  0
VERTEX
  8
Unknown_Line_Type
  70
32
  10
1810731.32
  20
3199264.68
  30
2144
  0
VERTEX
  8
Unknown_Line_Type
  70
32
  10
1810730.36
  20
3199263.40
  30
2144
  0
VERTEX
  8
Unknown_Line_Type
  70
32
  10
1810727.67
  20
3199259.26
  30
2144
  0
VERTEX
  8
Unknown_Line_Type
  70
32
  10
1810726.70
  20
3199257.93
  30
2144
  0
VERTEX
  8
Unknown_Line_Type
  70
32
  10
1810725.62
  20
3199256.69
  30
2144
  0
VERTEX
  8
Unknown_Line_Type
  70
32
  10
1810724.35
  20
3199255.55
  30
2144
  0
VERTEX
  8
Unknown_Line_Type
  70
32
  10
1810722.96
  20
3199254.52
  30
2144
  0
VERTEX
  8
Unknown_Line_Type
  70
32
  10
1810721.49
  20
3199253.57
  30
2144
  0
VERTEX
  8
Unknown_Line_Type
  70
32
  10
1810717.47
  20
3199251.20
  30
2144
  0
VERTEX
  8
Unknown_Line_Type
  70
32
  10
1810715.21
  20
3199249.80
  30
2144
  0
VERTEX
  8
Unknown_Line_Type
  70
32
  10
1810714.32
  20
3199249.17
  30
2144
  0
VERTEX
  8
Unknown_Line_Type
  70
32
  10
1810713.46
  20
3199248.47
  30
2144
  0
VERTEX
  8
Unknown_Line_Type
  70
32
  10
1810712.36
  20
3199247.49
  30
2144
  0
VERTEX
  8
Unknown_Line_Type
  70
32
  10
1810711.29
  20
3199246.45
  30
2144
  0
VERTEX
  8
Unknown_Line_Type
  70
32
  10
1810707.61
  20
3199242.65
  30
2144
  0
VERTEX
  8
Unknown_Line_Type
  70
32
  10
1810704.92
  20
3199239.97
  30
2144
  0
VERTEX
  8
Unknown_Line_Type
  70
32
  10
1810703.53
  20
3199238.70
  30
2144
  0
VERTEX
  8
Unknown_Line_Type
  70
32
  10
1810702.08
  20
3199237.51
  30
2144
  0
VERTEX
  8
Unknown_Line_Type
  70
32
  10
1810700.55
  20
3199236.43
  30
2144
  0
VERTEX
  8
Unknown_Line_Type
  70
32
  10
1810699.08
  20
3199235.56
  30
2144
  0
VERTEX
  8
Unknown_Line_Type
  70
32
  10
1810697.55
  20
3199234.78
  30
2144
  0
VERTEX
  8
Unknown_Line_Type
  70
32
  10
1810695.98
  20
3199234.05
  30
2144
  0
VERTEX
  8
Unknown_Line_Type
  70
32
  10
1810693.04
  20
3199232.79
  30
2144
  0
VERTEX
  8
Unknown_Line_Type
  70
32
  10
1810690.07
  20
3199231.59
  30
2144
  0
VERTEX
  8
Unknown_Line_Type
  70
32
  10
1810687.28
  20
3199230.56
  30
2144
  0
VERTEX
  8
Unknown_Line_Type
  70
32
  10
1810685.99
  20
3199230.12
  30
2144
  0
VERTEX
  8
Unknown_Line_Type
  70
32
  10
1810684.70
  20
3199229.72
  30
2144
  0
VERTEX
  8
Unknown_Line_Type
  70
32
  10
1810683.22
  20
3199229.33
  30
2144
  0
VERTEX
  8
Unknown_Line_Type
  70
32
  10
1810678.20
  20
3199228.30
  30
2144
  0
VERTEX
  8
Unknown_Line_Type
  70
32
  10
1810676.65
  20
3199227.91
  30
2144
  0
VERTEX
  8
Unknown_Line_Type
  70
32
  10
1810675.12
  20
3199227.48
  30
2144
  0
VERTEX
  8
Unknown_Line_Type
  70
32
  10
1810670.93
  20
3199226.14
  30
2144
  0
VERTEX
  8
Unknown_Line_Type
  70
32
  10
1810669.74
  20
3199225.78
  30
2144
  0
VERTEX
  8
Unknown_Line_Type
  70
32
  10
1810668.55
  20
3199225.50
  30
2144
  0
VERTEX
  8
Unknown_Line_Type
  70
32
  10
1810667.18
  20
3199225.30
  30
2144
  0
VERTEX
  8
Unknown_Line_Type
  70
32
  10
1810665.81
  20
3199225.24
  30
2144
  0
VERTEX
  8
Unknown_Line_Type
  70
32
  10
1810664.11
  20
3199225.33
  30
2144
  0
VERTEX
  8
Unknown_Line_Type
  70
32
  10
1810662.40
  20
3199225.49
  30
2144
  0
VERTEX
  8
Unknown_Line_Type
  70
32
  10
1810661.18
  20
3199225.55
  30
2144
  0
VERTEX
  8
Unknown_Line_Type
  70
32
  10
1810659.92
  20
3199225.56
  30
2144
  0
VERTEX
  8
Unknown_Line_Type
  70
32
  10
1810658.65
  20
3199225.49
  30
2144
  0
VERTEX
  8
Unknown_Line_Type
  70
32
  10
1810656.93
  20
3199225.29
  30
2144
  0
VERTEX
  8
Unknown_Line_Type
  70
32
  10
1810655.20
  20
3199224.97
  30
2144
  0
VERTEX
  8
Unknown_Line_Type
  70
32
  10
1810653.46
  20
3199224.58
  30
2144
  0
VERTEX
  8
Unknown_Line_Type
  70
32
  10
1810651.71
  20
3199224.13
  30
2144
  0
VERTEX
  8
Unknown_Line_Type
  70
32
  10
1810648.22
  20
3199223.13
  30
2144
  0
VERTEX
  8
Unknown_Line_Type
  70
32
  10
1810646.49
  20
3199222.58
  30
2144
  0
VERTEX
  8
Unknown_Line_Type
  70
32
  10
1810645.03
  20
3199222.08
  30
2144
  0
VERTEX
  8
Unknown_Line_Type
  70
32
  10
1810643.60
  20
3199221.54
  30
2144
  0
VERTEX
  8
Unknown_Line_Type
  70
32
  10
1810642.20
  20
3199220.95
  30
2144
  0
VERTEX
  8
Unknown_Line_Type
  70
32
  10
1810638.33
  20
3199219.14
  30
2144
  0
VERTEX
  8
Unknown_Line_Type
  70
32
  10
1810632.35
  20
3199216.55
  30
2144
  0
VERTEX
  8
Unknown_Line_Type
  70
32
  10
1810628.26
  20
3199214.68
  30
2144
  0
VERTEX
  8
Unknown_Line_Type
  70
32
  10
1810626.93
  20
3199214.13
  30
2144
  0
VERTEX
  8
Unknown_Line_Type
  70
32
  10
1810625.61
  20
3199213.68
  30
2144
  0
VERTEX
  8
Unknown_Line_Type
  70
32
  10
1810624.04
  20
3199213.35
  30
2144
  0
VERTEX
  8
Unknown_Line_Type
  70
32
  10
1810622.68
  20
3199213.29
  30
2144
  0
VERTEX
  8
Unknown_Line_Type
  70
32
  10
1810621.29
  20
3199213.40
  30
2144
  0
VERTEX
  8
Unknown_Line_Type
  70
32
  10
1810619.88
  20
3199213.62
  30
2144
  0
VERTEX
  8
Unknown_Line_Type
  70
32
  10
1810615.63
  20
3199214.55
  30
2144
  0
VERTEX
  8
Unknown_Line_Type
  70
32
  10
1810614.21
  20
3199214.83
  30
2144
  0
VERTEX
  8
Unknown_Line_Type
  70
32
  10
1810612.77
  20
3199215.02
  30
2144
  0
VERTEX
  8
Unknown_Line_Type
  70
32
  10
1810611.27
  20
3199215.11
  30
2144
  0
VERTEX
  8
Unknown_Line_Type
  70
32
  10
1810609.76
  20
3199215.08
  30
2144
  0
VERTEX
  8
Unknown_Line_Type
  70
32
  10
1810608.27
  20
3199214.90
  30
2144
  0
VERTEX
  8
Unknown_Line_Type
  70
32
  10
1810606.61
  20
3199214.53
  30
2144
  0
VERTEX
  8
Unknown_Line_Type
  70
32
  10
1810604.97
  20
3199214.03
  30
2144
  0
VERTEX
  8
Unknown_Line_Type
  70
32
  10
1810603.35
  20
3199213.44
  30
2144
  0
VERTEX
  8
Unknown_Line_Type
  70
32
  10
1810595.99
  20
3199210.47
  30
2144
  0
VERTEX
  8
Unknown_Line_Type
  70
32
  10
1810594.90
  20
3199209.98
  30
2144
  0
VERTEX
  8
Unknown_Line_Type
  70
32
  10
1810590.53
  20
3199207.74
  30
2144
  0
VERTEX
  8
Unknown_Line_Type
  70
32
  10
1810589.09
  20
3199207.10
  30
2144
  0
VERTEX
  8
Unknown_Line_Type
  70
32
  10
1810587.61
  20
3199206.50
  30
2144
  0
VERTEX
  8
Unknown_Line_Type
  70
32
  10
1810586.12
  20
3199205.94
  30
2144
  0
VERTEX
  8
Unknown_Line_Type
  70
32
  10
1810584.70
  20
3199205.44
  30
2144
  0
VERTEX
  8
Unknown_Line_Type
  70
32
  10
1810582.93
  20
3199204.88
  30
2144
  0
VERTEX
  8
Unknown_Line_Type
  70
32
  10
1810581.14
  20
3199204.40
  30
2144
  0
VERTEX
  8
Unknown_Line_Type
  70
32
  10
1810579.32
  20
3199203.99
  30
2144
  0
VERTEX
  8
Unknown_Line_Type
  70
32
  10
1810577.49
  20
3199203.66
  30
2144
  0
VERTEX
  8
Unknown_Line_Type
  70
32
  10
1810575.67
  20
3199203.42
  30
2144
  0
VERTEX
  8
Unknown_Line_Type
  70
32
  10
1810570.20
  20
3199202.88
  30
2144
  0
VERTEX
  8
Unknown_Line_Type
  70
32
  10
1810568.41
  20
3199202.64
  30
2144
  0
VERTEX
  8
Unknown_Line_Type
  70
32
  10
1810566.68
  20
3199202.33
  30
2144
  0
VERTEX
  8
Unknown_Line_Type
  70
32
  10
1810563.32
  20
3199201.63
  30
2144
  0
VERTEX
  8
Unknown_Line_Type
  70
32
  10
1810561.70
  20
3199201.33
  30
2144
  0
VERTEX
  8
Unknown_Line_Type
  70
32
  10
1810560.73
  20
3199201.19
  30
2144
  0
VERTEX
  8
Unknown_Line_Type
  70
32
  10
1810559.76
  20
3199201.12
  30
2144
  0
VERTEX
  8
Unknown_Line_Type
  70
32
  10
1810558.61
  20
3199201.14
  30
2144
  0
VERTEX
  8
Unknown_Line_Type
  70
32
  10
1810557.46
  20
3199201.30
  30
2144
  0
VERTEX
  8
Unknown_Line_Type
  70
32
  10
1810556.35
  20
3199201.57
  30
2144
  0
VERTEX
  8
Unknown_Line_Type
  70
32
  10
1810555.44
  20
3199201.89
  30
2144
  0
VERTEX
  8
Unknown_Line_Type
  70
32
  10
1810554.35
  20
3199202.37
  30
2144
  0
VERTEX
  8
Unknown_Line_Type
  70
32
  10
1810551.95
  20
3199203.59
  30
2144
  0
VERTEX
  8
Unknown_Line_Type
  70
32
  10
1810550.72
  20
3199204.15
  30
2144
  0
VERTEX
  8
Unknown_Line_Type
  70
32
  10
1810549.61
  20
3199204.55
  30
2144
  0
VERTEX
  8
Unknown_Line_Type
  70
32
  10
1810548.46
  20
3199204.89
  30
2144
  0
VERTEX
  8
Unknown_Line_Type
  70
32
  10
1810547.30
  20
3199205.19
  30
2144
  0
VERTEX
  8
Unknown_Line_Type
  70
32
  10
1810546.19
  20
3199205.44
  30
2144
  0
VERTEX
  8
Unknown_Line_Type
  70
32
  10
1810545.07
  20
3199205.63
  30
2144
  0
VERTEX
  8
Unknown_Line_Type
  70
32
  10
1810543.95
  20
3199205.74
  30
2144
  0
VERTEX
  8
Unknown_Line_Type
  70
32
  10
1810542.51
  20
3199205.73
  30
2144
  0
VERTEX
  8
Unknown_Line_Type
  70
32
  10
1810541.04
  20
3199205.59
  30
2144
  0
VERTEX
  8
Unknown_Line_Type
  70
32
  10
1810538.05
  20
3199205.20
  30
2144
  0
VERTEX
  8
Unknown_Line_Type
  70
32
  10
1810536.55
  20
3199205.07
  30
2144
  0
VERTEX
  8
Unknown_Line_Type
  70
32
  10
1810533.51
  20
3199204.87
  30
2144
  0
VERTEX
  8
Unknown_Line_Type
  70
32
  10
1810532.00
  20
3199204.75
  30
2144
  0
VERTEX
  8
Unknown_Line_Type
  70
32
  10
1810530.45
  20
3199204.54
  30
2144
  0
VERTEX
  8
Unknown_Line_Type
  70
32
  10
1810528.93
  20
3199204.19
  30
2144
  0
VERTEX
  8
Unknown_Line_Type
  70
32
  10
1810527.31
  20
3199203.59
  30
2144
  0
VERTEX
  8
Unknown_Line_Type
  70
32
  10
1810525.73
  20
3199202.84
  30
2144
  0
VERTEX
  8
Unknown_Line_Type
  70
32
  10
1810522.31
  20
3199201.10
  30
2144
  0
VERTEX
  8
Unknown_Line_Type
  70
32
  10
1810521.14
  20
3199200.57
  30
2144
  0
VERTEX
  8
Unknown_Line_Type
  70
32
  10
1810519.94
  20
3199200.10
  30
2144
  0
VERTEX
  8
Unknown_Line_Type
  70
32
  10
1810518.74
  20
3199199.68
  30
2144
  0
VERTEX
  8
Unknown_Line_Type
  70
32
  10
1810517.17
  20
3199199.22
  30
2144
  0
VERTEX
  8
Unknown_Line_Type
  70
32
  10
1810515.60
  20
3199198.90
  30
2144
  0
VERTEX
  8
Unknown_Line_Type
  70
32
  10
1810514.04
  20
3199198.77
  30
2144
  0
VERTEX
  8
Unknown_Line_Type
  70
32
  10
1810512.45
  20
3199198.91
  30
2144
  0
VERTEX
  8
Unknown_Line_Type
  70
32
  10
1810510.88
  20
3199199.28
  30
2144
  0
VERTEX
  8
Unknown_Line_Type
  70
32
  10
1810509.34
  20
3199199.83
  30
2144
  0
VERTEX
  8
Unknown_Line_Type
  70
32
  10
1810508.17
  20
3199200.34
  30
2144
  0
VERTEX
  8
Unknown_Line_Type
  70
32
  10
1810505.74
  20
3199201.48
  30
2144
  0
VERTEX
  8
Unknown_Line_Type
  70
32
  10
1810503.80
  20
3199202.27
  30
2144
  0
VERTEX
  8
Unknown_Line_Type
  70
32
  10
1810501.67
  20
3199203.05
  30
2144
  0
VERTEX
  8
Unknown_Line_Type
  70
32
  10
1810499.43
  20
3199203.79
  30
2144
  0
VERTEX
  8
Unknown_Line_Type
  70
32
  10
1810497.20
  20
3199204.47
  30
2144
  0
VERTEX
  8
Unknown_Line_Type
  70
32
  10
1810494.95
  20
3199205.08
  30
2144
  0
VERTEX
  8
Unknown_Line_Type
  70
32
  10
1810492.93
  20
3199205.53
  30
2144
  0
VERTEX
  8
Unknown_Line_Type
  70
32
  10
1810491.25
  20
3199205.77
  30
2144
  0
VERTEX
  8
Unknown_Line_Type
  70
32
  10
1810490.03
  20
3199205.78
  30
2144
  0
VERTEX
  8
Unknown_Line_Type
  70
32
  10
1810489.43
  20
3199205.62
  30
2144
  0
VERTEX
  8
Unknown_Line_Type
  70
32
  10
1810489.25
  20
3199205.36
  30
2144
  0
SEQEND
  8
Unknown_Line_Type
  0
POLYLINE
  8
Unknown_Line_Type
  70
8
  66
1
 62
0
 39
0
  0
VERTEX
  8
Unknown_Line_Type
  70
32
  10
1810509.89
  20
3199187.46
  30
2146
  0
VERTEX
  8
Unknown_Line_Type
  70
32
  10
1810510.15
  20
3199187.38
  30
2146
  0
VERTEX
  8
Unknown_Line_Type
  70
32
  10
1810510.88
  20
3199187.33
  30
2146
  0
VERTEX
  8
Unknown_Line_Type
  70
32
  10
1810512.20
  20
3199187.34
  30
2146
  0
VERTEX
  8
Unknown_Line_Type
  70
32
  10
1810513.21
  20
3199187.40
  30
2146
  0
VERTEX
  8
Unknown_Line_Type
  70
32
  10
1810514.91
  20
3199187.58
  30
2146
  0
VERTEX
  8
Unknown_Line_Type
  70
32
  10
1810516.82
  20
3199187.86
  30
2146
  0
VERTEX
  8
Unknown_Line_Type
  70
32
  10
1810520.99
  20
3199188.58
  30
2146
  0
VERTEX
  8
Unknown_Line_Type
  70
32
  10
1810523.13
  20
3199188.91
  30
2146
  0
VERTEX
  8
Unknown_Line_Type
  70
32
  10
1810524.59
  20
3199189.10
  30
2146
  0
VERTEX
  8
Unknown_Line_Type
  70
32
  10
1810526.00
  20
3199189.24
  30
2146
  0
VERTEX
  8
Unknown_Line_Type
  70
32
  10
1810527.95
  20
3199189.38
  30
2146
  0
VERTEX
  8
Unknown_Line_Type
  70
32
  10
1810529.65
  20
3199189.43
  30
2146
  0
VERTEX
  8
Unknown_Line_Type
  70
32
  10
1810531.25
  20
3199189.42
  30
2146
  0
VERTEX
  8
Unknown_Line_Type
  70
32
  10
1810532.80
  20
3199189.37
  30
2146
  0
VERTEX
  8
Unknown_Line_Type
  70
32
  10
1810534.28
  20
3199189.28
  30
2146
  0
VERTEX
  8
Unknown_Line_Type
  70
32
  10
1810535.53
  20
3199189.14
  30
2146
  0
VERTEX
  8
Unknown_Line_Type
  70
32
  10
1810536.63
  20
3199188.91
  30
2146
  0
VERTEX
  8
Unknown_Line_Type
  70
32
  10
1810537.65
  20
3199188.60
  30
2146
  0
VERTEX
  8
Unknown_Line_Type
  70
32
  10
1810538.56
  20
3199188.21
  30
2146
  0
VERTEX
  8
Unknown_Line_Type
  70
32
  10
1810540.51
  20
3199187.07
  30
2146
  0
VERTEX
  8
Unknown_Line_Type
  70
32
  10
1810541.09
  20
3199186.83
  30
2146
  0
VERTEX
  8
Unknown_Line_Type
  70
32
  10
1810541.67
  20
3199186.75
  30
2146
  0
VERTEX
  8
Unknown_Line_Type
  70
32
  10
1810542.29
  20
3199186.87
  30
2146
  0
VERTEX
  8
Unknown_Line_Type
  70
32
  10
1810542.94
  20
3199187.18
  30
2146
  0
VERTEX
  8
Unknown_Line_Type
  70
32
  10
1810543.86
  20
3199187.86
  30
2146
  0
VERTEX
  8
Unknown_Line_Type
  70
32
  10
1810545.59
  20
3199189.55
  30
2146
  0
VERTEX
  8
Unknown_Line_Type
  70
32
  10
1810546.52
  20
3199190.37
  30
2146
  0
VERTEX
  8
Unknown_Line_Type
  70
32
  10
1810547.56
  20
3199191.03
  30
2146
  0
VERTEX
  8
Unknown_Line_Type
  70
32
  10
1810548.48
  20
3199191.36
  30
2146
  0
VERTEX
  8
Unknown_Line_Type
  70
32
  10
1810549.48
  20
3199191.51
  30
2146
  0
VERTEX
  8
Unknown_Line_Type
  70
32
  10
1810550.52
  20
3199191.49
  30
2146
  0
VERTEX
  8
Unknown_Line_Type
  70
32
  10
1810551.99
  20
3199191.18
  30
2146
  0
VERTEX
  8
Unknown_Line_Type
  70
32
  10
1810553.21
  20
3199190.80
  30
2146
  0
VERTEX
  8
Unknown_Line_Type
  70
32
  10
1810557.20
  20
3199189.38
  30
2146
  0
VERTEX
  8
Unknown_Line_Type
  70
32
  10
1810558.88
  20
3199188.87
  30
2146
  0
VERTEX
  8
Unknown_Line_Type
  70
32
  10
1810560.62
  20
3199188.43
  30
2146
  0
VERTEX
  8
Unknown_Line_Type
  70
32
  10
1810562.39
  20
3199188.04
  30
2146
  0
VERTEX
  8
Unknown_Line_Type
  70
32
  10
1810564.21
  20
3199187.70
  30
2146
  0
VERTEX
  8
Unknown_Line_Type
  70
32
  10
1810566.05
  20
3199187.43
  30
2146
  0
VERTEX
  8
Unknown_Line_Type
  70
32
  10
1810567.90
  20
3199187.24
  30
2146
  0
VERTEX
  8
Unknown_Line_Type
  70
32
  10
1810569.83
  20
3199187.13
  30
2146
  0
VERTEX
  8
Unknown_Line_Type
  70
32
  10
1810571.77
  20
3199187.10
  30
2146
  0
VERTEX
  8
Unknown_Line_Type
  70
32
  10
1810581.08
  20
3199187.29
  30
2146
  0
VERTEX
  8
Unknown_Line_Type
  70
32
  10
1810582.81
  20
3199187.34
  30
2146
  0
VERTEX
  8
Unknown_Line_Type
  70
32
  10
1810584.53
  20
3199187.44
  30
2146
  0
VERTEX
  8
Unknown_Line_Type
  70
32
  10
1810589.80
  20
3199187.92
  30
2146
  0
VERTEX
  8
Unknown_Line_Type
  70
32
  10
1810591.53
  20
3199188.01
  30
2146
  0
VERTEX
  8
Unknown_Line_Type
  70
32
  10
1810592.73
  20
3199188.00
  30
2146
  0
VERTEX
  8
Unknown_Line_Type
  70
32
  10
1810594.21
  20
3199187.92
  30
2146
  0
VERTEX
  8
Unknown_Line_Type
  70
32
  10
1810597.13
  20
3199187.66
  30
2146
  0
VERTEX
  8
Unknown_Line_Type
  70
32
  10
1810598.57
  20
3199187.59
  30
2146
  0
VERTEX
  8
Unknown_Line_Type
  70
32
  10
1810600.01
  20
3199187.62
  30
2146
  0
VERTEX
  8
Unknown_Line_Type
  70
32
  10
1810601.59
  20
3199187.81
  30
2146
  0
VERTEX
  8
Unknown_Line_Type
  70
32
  10
1810603.17
  20
3199188.12
  30
2146
  0
VERTEX
  8
Unknown_Line_Type
  70
32
  10
1810607.72
  20
3199189.24
  30
2146
  0
VERTEX
  8
Unknown_Line_Type
  70
32
  10
1810609.22
  20
3199189.58
  30
2146
  0
VERTEX
  8
Unknown_Line_Type
  70
32
  10
1810610.92
  20
3199189.92
  30
2146
  0
VERTEX
  8
Unknown_Line_Type
  70
32
  10
1810616.04
  20
3199190.83
  30
2146
  0
VERTEX
  8
Unknown_Line_Type
  70
32
  10
1810617.71
  20
3199191.17
  30
2146
  0
VERTEX
  8
Unknown_Line_Type
  70
32
  10
1810619.35
  20
3199191.56
  30
2146
  0
VERTEX
  8
Unknown_Line_Type
  70
32
  10
1810620.93
  20
3199192.03
  30
2146
  0
VERTEX
  8
Unknown_Line_Type
  70
32
  10
1810622.43
  20
3199192.60
  30
2146
  0
VERTEX
  8
Unknown_Line_Type
  70
32
  10
1810625.68
  20
3199193.98
  30
2146
  0
VERTEX
  8
Unknown_Line_Type
  70
32
  10
1810627.05
  20
3199194.44
  30
2146
  0
VERTEX
  8
Unknown_Line_Type
  70
32
  10
1810628.44
  20
3199194.77
  30
2146
  0
VERTEX
  8
Unknown_Line_Type
  70
32
  10
1810629.98
  20
3199195.00
  30
2146
  0
VERTEX
  8
Unknown_Line_Type
  70
32
  10
1810631.52
  20
3199195.19
  30
2146
  0
VERTEX
  8
Unknown_Line_Type
  70
32
  10
1810633.05
  20
3199195.45
  30
2146
  0
VERTEX
  8
Unknown_Line_Type
  70
32
  10
1810634.54
  20
3199195.89
  30
2146
  0
VERTEX
  8
Unknown_Line_Type
  70
32
  10
1810636.02
  20
3199196.48
  30
2146
  0
VERTEX
  8
Unknown_Line_Type
  70
32
  10
1810637.48
  20
3199197.21
  30
2146
  0
VERTEX
  8
Unknown_Line_Type
  70
32
  10
1810638.93
  20
3199198.03
  30
2146
  0
VERTEX
  8
Unknown_Line_Type
  70
32
  10
1810640.15
  20
3199198.81
  30
2146
  0
VERTEX
  8
Unknown_Line_Type
  70
32
  10
1810642.52
  20
3199200.48
  30
2146
  0
VERTEX
  8
Unknown_Line_Type
  70
32
  10
1810647.08
  20
3199203.99
  30
2146
  0
VERTEX
  8
Unknown_Line_Type
  70
32
  10
1810648.11
  20
3199204.70
  30
2146
  0
VERTEX
  8
Unknown_Line_Type
  70
32
  10
1810649.17
  20
3199205.27
  30
2146
  0
VERTEX
  8
Unknown_Line_Type
  70
32
  10
1810650.66
  20
3199205.77
  30
2146
  0
VERTEX
  8
Unknown_Line_Type
  70
32
  10
1810652.27
  20
3199206.04
  30
2146
  0
VERTEX
  8
Unknown_Line_Type
  70
32
  10
1810653.97
  20
3199206.18
  30
2146
  0
VERTEX
  8
Unknown_Line_Type
  70
32
  10
1810657.55
  20
3199206.33
  30
2146
  0
VERTEX
  8
Unknown_Line_Type
  70
32
  10
1810659.31
  20
3199206.44
  30
2146
  0
VERTEX
  8
Unknown_Line_Type
  70
32
  10
1810662.98
  20
3199206.77
  30
2146
  0
VERTEX
  8
Unknown_Line_Type
  70
32
  10
1810666.69
  20
3199207.20
  30
2146
  0
VERTEX
  8
Unknown_Line_Type
  70
32
  10
1810668.55
  20
3199207.46
  30
2146
  0
VERTEX
  8
Unknown_Line_Type
  70
32
  10
1810670.40
  20
3199207.77
  30
2146
  0
VERTEX
  8
Unknown_Line_Type
  70
32
  10
1810672.19
  20
3199208.12
  30
2146
  0
VERTEX
  8
Unknown_Line_Type
  70
32
  10
1810673.96
  20
3199208.52
  30
2146
  0
VERTEX
  8
Unknown_Line_Type
  70
32
  10
1810675.71
  20
3199209.00
  30
2146
  0
VERTEX
  8
Unknown_Line_Type
  70
32
  10
1810677.42
  20
3199209.57
  30
2146
  0
VERTEX
  8
Unknown_Line_Type
  70
32
  10
1810679.09
  20
3199210.22
  30
2146
  0
VERTEX
  8
Unknown_Line_Type
  70
32
  10
1810680.60
  20
3199210.90
  30
2146
  0
VERTEX
  8
Unknown_Line_Type
  70
32
  10
1810682.09
  20
3199211.63
  30
2146
  0
VERTEX
  8
Unknown_Line_Type
  70
32
  10
1810686.54
  20
3199213.91
  30
2146
  0
VERTEX
  8
Unknown_Line_Type
  70
32
  10
1810689.84
  20
3199215.46
  30
2146
  0
VERTEX
  8
Unknown_Line_Type
  70
32
  10
1810697.66
  20
3199218.84
  30
2146
  0
VERTEX
  8
Unknown_Line_Type
  70
32
  10
1810700.98
  20
3199220.22
  30
2146
  0
VERTEX
  8
Unknown_Line_Type
  70
32
  10
1810706.23
  20
3199222.28
  30
2146
  0
VERTEX
  8
Unknown_Line_Type
  70
32
  10
1810710.74
  20
3199224.22
  30
2146
  0
VERTEX
  8
Unknown_Line_Type
  70
32
  10
1810713.76
  20
3199225.45
  30
2146
  0
VERTEX
  8
Unknown_Line_Type
  70
32
  10
1810715.55
  20
3199226.09
  30
2146
  0
VERTEX
  8
Unknown_Line_Type
  70
32
  10
1810720.92
  20
3199227.82
  30
2146
  0
VERTEX
  8
Unknown_Line_Type
  70
32
  10
1810722.38
  20
3199228.33
  30
2146
  0
VERTEX
  8
Unknown_Line_Type
  70
32
  10
1810723.80
  20
3199228.89
  30
2146
  0
VERTEX
  8
Unknown_Line_Type
  70
32
  10
1810725.15
  20
3199229.53
  30
2146
  0
VERTEX
  8
Unknown_Line_Type
  70
32
  10
1810726.42
  20
3199230.28
  30
2146
  0
VERTEX
  8
Unknown_Line_Type
  70
32
  10
1810727.17
  20
3199230.82
  30
2146
  0
VERTEX
  8
Unknown_Line_Type
  70
32
  10
1810727.88
  20
3199231.41
  30
2146
  0
VERTEX
  8
Unknown_Line_Type
  70
32
  10
1810729.07
  20
3199232.48
  30
2146
  0
VERTEX
  8
Unknown_Line_Type
  70
32
  10
1810730.22
  20
3199233.63
  30
2146
  0
VERTEX
  8
Unknown_Line_Type
  70
32
  10
1810733.68
  20
3199237.22
  30
2146
  0
VERTEX
  8
Unknown_Line_Type
  70
32
  10
1810734.86
  20
3199238.40
  30
2146
  0
VERTEX
  8
Unknown_Line_Type
  70
32
  10
1810736.09
  20
3199239.54
  30
2146
  0
VERTEX
  8
Unknown_Line_Type
  70
32
  10
1810737.24
  20
3199240.51
  30
2146
  0
VERTEX
  8
Unknown_Line_Type
  70
32
  10
1810738.41
  20
3199241.45
  30
2146
  0
VERTEX
  8
Unknown_Line_Type
  70
32
  10
1810740.95
  20
3199243.35
  30
2146
  0
VERTEX
  8
Unknown_Line_Type
  70
32
  10
1810742.44
  20
3199244.36
  30
2146
  0
VERTEX
  8
Unknown_Line_Type
  70
32
  10
1810745.48
  20
3199246.30
  30
2146
  0
VERTEX
  8
Unknown_Line_Type
  70
32
  10
1810746.97
  20
3199247.31
  30
2146
  0
VERTEX
  8
Unknown_Line_Type
  70
32
  10
1810748.31
  20
3199248.31
  30
2146
  0
VERTEX
  8
Unknown_Line_Type
  70
32
  10
1810749.60
  20
3199249.37
  30
2146
  0
VERTEX
  8
Unknown_Line_Type
  70
32
  10
1810750.65
  20
3199250.33
  30
2146
  0
VERTEX
  8
Unknown_Line_Type
  70
32
  10
1810751.64
  20
3199251.33
  30
2146
  0
VERTEX
  8
Unknown_Line_Type
  70
32
  10
1810752.56
  20
3199252.40
  30
2146
  0
VERTEX
  8
Unknown_Line_Type
  70
32
  10
1810753.47
  20
3199253.65
  30
2146
  0
VERTEX
  8
Unknown_Line_Type
  70
32
  10
1810754.33
  20
3199254.97
  30
2146
  0
VERTEX
  8
Unknown_Line_Type
  70
32
  10
1810756.00
  20
3199257.70
  30
2146
  0
SEQEND
  8
Unknown_Line_Type
  0
POLYLINE
  8
Unknown_Line_Type
  70
8
  66
1
 62
0
 39
0
  0
VERTEX
  8
Unknown_Line_Type
  70
32
  10
1810534.47
  20
3199166.14
  30
2148
  0
VERTEX
  8
Unknown_Line_Type
  70
32
  10
1810534.69
  20
3199166.10
  30
2148
  0
VERTEX
  8
Unknown_Line_Type
  70
32
  10
1810535.26
  20
3199166.18
  30
2148
  0
VERTEX
  8
Unknown_Line_Type
  70
32
  10
1810536.13
  20
3199166.38
  30
2148
  0
VERTEX
  8
Unknown_Line_Type
  70
32
  10
1810541.04
  20
3199167.89
  30
2148
  0
VERTEX
  8
Unknown_Line_Type
  70
32
  10
1810543.00
  20
3199168.41
  30
2148
  0
VERTEX
  8
Unknown_Line_Type
  70
32
  10
1810545.05
  20
3199168.90
  30
2148
  0
VERTEX
  8
Unknown_Line_Type
  70
32
  10
1810547.10
  20
3199169.34
  30
2148
  0
VERTEX
  8
Unknown_Line_Type
  70
32
  10
1810549.07
  20
3199169.71
  30
2148
  0
VERTEX
  8
Unknown_Line_Type
  70
32
  10
1810553.84
  20
3199170.45
  30
2148
  0
VERTEX
  8
Unknown_Line_Type
  70
32
  10
1810555.11
  20
3199170.77
  30
2148
  0
VERTEX
  8
Unknown_Line_Type
  70
32
  10
1810558.97
  20
3199171.93
  30
2148
  0
VERTEX
  8
Unknown_Line_Type
  70
32
  10
1810560.68
  20
3199172.31
  30
2148
  0
VERTEX
  8
Unknown_Line_Type
  70
32
  10
1810562.43
  20
3199172.52
  30
2148
  0
VERTEX
  8
Unknown_Line_Type
  70
32
  10
1810564.17
  20
3199172.51
  30
2148
  0
VERTEX
  8
Unknown_Line_Type
  70
32
  10
1810565.94
  20
3199172.36
  30
2148
  0
VERTEX
  8
Unknown_Line_Type
  70
32
  10
1810567.25
  20
3199172.17
  30
2148
  0
VERTEX
  8
Unknown_Line_Type
  70
32
  10
1810568.57
  20
3199171.94
  30
2148
  0
VERTEX
  8
Unknown_Line_Type
  70
32
  10
1810569.90
  20
3199171.66
  30
2148
  0
VERTEX
  8
Unknown_Line_Type
  70
32
  10
1810571.48
  20
3199171.28
  30
2148
  0
VERTEX
  8
Unknown_Line_Type
  70
32
  10
1810573.06
  20
3199170.85
  30
2148
  0
VERTEX
  8
Unknown_Line_Type
  70
32
  10
1810574.64
  20
3199170.37
  30
2148
  0
VERTEX
  8
Unknown_Line_Type
  70
32
  10
1810576.21
  20
3199169.85
  30
2148
  0
VERTEX
  8
Unknown_Line_Type
  70
32
  10
1810577.74
  20
3199169.30
  30
2148
  0
VERTEX
  8
Unknown_Line_Type
  70
32
  10
1810582.31
  20
3199167.54
  30
2148
  0
VERTEX
  8
Unknown_Line_Type
  70
32
  10
1810583.84
  20
3199166.98
  30
2148
  0
VERTEX
  8
Unknown_Line_Type
  70
32
  10
1810585.65
  20
3199166.37
  30
2148
  0
VERTEX
  8
Unknown_Line_Type
  70
32
  10
1810587.48
  20
3199165.86
  30
2148
  0
VERTEX
  8
Unknown_Line_Type
  70
32
  10
1810589.05
  20
3199165.52
  30
2148
  0
VERTEX
  8
Unknown_Line_Type
  70
32
  10
1810590.63
  20
3199165.26
  30
2148
  0
VERTEX
  8
Unknown_Line_Type
  70
32
  10
1810592.21
  20
3199165.10
  30
2148
  0
VERTEX
  8
Unknown_Line_Type
  70
32
  10
1810593.80
  20
3199165.02
  30
2148
  0
VERTEX
  8
Unknown_Line_Type
  70
32
  10
1810595.38
  20
3199165.04
  30
2148
  0
VERTEX
  8
Unknown_Line_Type
  70
32
  10
1810596.83
  20
3199165.15
  30
2148
  0
VERTEX
  8
Unknown_Line_Type
  70
32
  10
1810604.31
  20
3199166.07
  30
2148
  0
VERTEX
  8
Unknown_Line_Type
  70
32
  10
1810605.88
  20
3199166.28
  30
2148
  0
VERTEX
  8
Unknown_Line_Type
  70
32
  10
1810607.44
  20
3199166.55
  30
2148
  0
VERTEX
  8
Unknown_Line_Type
  70
32
  10
1810608.43
  20
3199166.77
  30
2148
  0
VERTEX
  8
Unknown_Line_Type
  70
32
  10
1810610.10
  20
3199167.23
  30
2148
  0
VERTEX
  8
Unknown_Line_Type
  70
32
  10
1810611.24
  20
3199167.60
  30
2148
  0
VERTEX
  8
Unknown_Line_Type
  70
32
  10
1810612.36
  20
3199168.02
  30
2148
  0
VERTEX
  8
Unknown_Line_Type
  70
32
  10
1810613.53
  20
3199168.54
  30
2148
  0
VERTEX
  8
Unknown_Line_Type
  70
32
  10
1810614.68
  20
3199169.11
  30
2148
  0
VERTEX
  8
Unknown_Line_Type
  70
32
  10
1810615.82
  20
3199169.72
  30
2148
  0
VERTEX
  8
Unknown_Line_Type
  70
32
  10
1810619.90
  20
3199172.08
  30
2148
  0
VERTEX
  8
Unknown_Line_Type
  70
32
  10
1810621.28
  20
3199172.80
  30
2148
  0
VERTEX
  8
Unknown_Line_Type
  70
32
  10
1810622.99
  20
3199173.55
  30
2148
  0
VERTEX
  8
Unknown_Line_Type
  70
32
  10
1810624.73
  20
3199174.18
  30
2148
  0
VERTEX
  8
Unknown_Line_Type
  70
32
  10
1810626.50
  20
3199174.68
  30
2148
  0
VERTEX
  8
Unknown_Line_Type
  70
32
  10
1810628.27
  20
3199175.07
  30
2148
  0
VERTEX
  8
Unknown_Line_Type
  70
32
  10
1810630.02
  20
3199175.32
  30
2148
  0
VERTEX
  8
Unknown_Line_Type
  70
32
  10
1810631.40
  20
3199175.42
  30
2148
  0
VERTEX
  8
Unknown_Line_Type
  70
32
  10
1810632.74
  20
3199175.44
  30
2148
  0
VERTEX
  8
Unknown_Line_Type
  70
32
  10
1810635.48
  20
3199175.35
  30
2148
  0
VERTEX
  8
Unknown_Line_Type
  70
32
  10
1810636.86
  20
3199175.40
  30
2148
  0
VERTEX
  8
Unknown_Line_Type
  70
32
  10
1810638.31
  20
3199175.71
  30
2148
  0
VERTEX
  8
Unknown_Line_Type
  70
32
  10
1810639.69
  20
3199176.31
  30
2148
  0
VERTEX
  8
Unknown_Line_Type
  70
32
  10
1810640.92
  20
3199177.14
  30
2148
  0
VERTEX
  8
Unknown_Line_Type
  70
32
  10
1810642.09
  20
3199178.15
  30
2148
  0
VERTEX
  8
Unknown_Line_Type
  70
32
  10
1810644.74
  20
3199180.78
  30
2148
  0
VERTEX
  8
Unknown_Line_Type
  70
32
  10
1810645.92
  20
3199181.76
  30
2148
  0
VERTEX
  8
Unknown_Line_Type
  70
32
  10
1810647.21
  20
3199182.65
  30
2148
  0
VERTEX
  8
Unknown_Line_Type
  70
32
  10
1810648.59
  20
3199183.45
  30
2148
  0
VERTEX
  8
Unknown_Line_Type
  70
32
  10
1810650.05
  20
3199184.15
  30
2148
  0
VERTEX
  8
Unknown_Line_Type
  70
32
  10
1810651.74
  20
3199184.81
  30
2148
  0
VERTEX
  8
Unknown_Line_Type
  70
32
  10
1810656.71
  20
3199186.49
  30
2148
  0
VERTEX
  8
Unknown_Line_Type
  70
32
  10
1810658.29
  20
3199187.09
  30
2148
  0
VERTEX
  8
Unknown_Line_Type
  70
32
  10
1810659.83
  20
3199187.75
  30
2148
  0
VERTEX
  8
Unknown_Line_Type
  70
32
  10
1810661.29
  20
3199188.50
  30
2148
  0
VERTEX
  8
Unknown_Line_Type
  70
32
  10
1810662.57
  20
3199189.30
  30
2148
  0
VERTEX
  8
Unknown_Line_Type
  70
32
  10
1810665.04
  20
3199191.05
  30
2148
  0
VERTEX
  8
Unknown_Line_Type
  70
32
  10
1810666.31
  20
3199191.89
  30
2148
  0
VERTEX
  8
Unknown_Line_Type
  70
32
  10
1810667.78
  20
3199192.65
  30
2148
  0
VERTEX
  8
Unknown_Line_Type
  70
32
  10
1810669.35
  20
3199193.30
  30
2148
  0
VERTEX
  8
Unknown_Line_Type
  70
32
  10
1810670.98
  20
3199193.86
  30
2148
  0
VERTEX
  8
Unknown_Line_Type
  70
32
  10
1810672.67
  20
3199194.37
  30
2148
  0
VERTEX
  8
Unknown_Line_Type
  70
32
  10
1810674.44
  20
3199194.85
  30
2148
  0
VERTEX
  8
Unknown_Line_Type
  70
32
  10
1810676.24
  20
3199195.30
  30
2148
  0
VERTEX
  8
Unknown_Line_Type
  70
32
  10
1810678.06
  20
3199195.70
  30
2148
  0
VERTEX
  8
Unknown_Line_Type
  70
32
  10
1810679.90
  20
3199196.04
  30
2148
  0
VERTEX
  8
Unknown_Line_Type
  70
32
  10
1810681.75
  20
3199196.31
  30
2148
  0
VERTEX
  8
Unknown_Line_Type
  70
32
  10
1810683.51
  20
3199196.47
  30
2148
  0
VERTEX
  8
Unknown_Line_Type
  70
32
  10
1810687.04
  20
3199196.72
  30
2148
  0
VERTEX
  8
Unknown_Line_Type
  70
32
  10
1810690.07
  20
3199197.00
  30
2148
  0
VERTEX
  8
Unknown_Line_Type
  70
32
  10
1810691.57
  20
3199197.20
  30
2148
  0
VERTEX
  8
Unknown_Line_Type
  70
32
  10
1810693.06
  20
3199197.44
  30
2148
  0
VERTEX
  8
Unknown_Line_Type
  70
32
  10
1810694.59
  20
3199197.75
  30
2148
  0
VERTEX
  8
Unknown_Line_Type
  70
32
  10
1810696.10
  20
3199198.15
  30
2148
  0
VERTEX
  8
Unknown_Line_Type
  70
32
  10
1810697.57
  20
3199198.63
  30
2148
  0
VERTEX
  8
Unknown_Line_Type
  70
32
  10
1810699.13
  20
3199199.28
  30
2148
  0
VERTEX
  8
Unknown_Line_Type
  70
32
  10
1810700.66
  20
3199200.00
  30
2148
  0
VERTEX
  8
Unknown_Line_Type
  70
32
  10
1810705.30
  20
3199202.33
  30
2148
  0
VERTEX
  8
Unknown_Line_Type
  70
32
  10
1810706.85
  20
3199203.01
  30
2148
  0
VERTEX
  8
Unknown_Line_Type
  70
32
  10
1810708.39
  20
3199203.60
  30
2148
  0
VERTEX
  8
Unknown_Line_Type
  70
32
  10
1810709.86
  20
3199204.04
  30
2148
  0
VERTEX
  8
Unknown_Line_Type
  70
32
  10
1810714.06
  20
3199205.23
  30
2148
  0
VERTEX
  8
Unknown_Line_Type
  70
32
  10
1810717.44
  20
3199205.96
  30
2148
  0
VERTEX
  8
Unknown_Line_Type
  70
32
  10
1810719.12
  20
3199206.37
  30
2148
  0
VERTEX
  8
Unknown_Line_Type
  70
32
  10
1810720.74
  20
3199206.94
  30
2148
  0
VERTEX
  8
Unknown_Line_Type
  70
32
  10
1810722.11
  20
3199207.65
  30
2148
  0
VERTEX
  8
Unknown_Line_Type
  70
32
  10
1810723.43
  20
3199208.51
  30
2148
  0
VERTEX
  8
Unknown_Line_Type
  70
32
  10
1810724.71
  20
3199209.49
  30
2148
  0
VERTEX
  8
Unknown_Line_Type
  70
32
  10
1810729.30
  20
3199213.37
  30
2148
  0
VERTEX
  8
Unknown_Line_Type
  70
32
  10
1810730.50
  20
3199214.26
  30
2148
  0
VERTEX
  8
Unknown_Line_Type
  70
32
  10
1810734.93
  20
3199217.14
  30
2148
  0
VERTEX
  8
Unknown_Line_Type
  70
32
  10
1810738.58
  20
3199219.88
  30
2148
  0
VERTEX
  8
Unknown_Line_Type
  70
32
  10
1810743.03
  20
3199223.08
  30
2148
  0
VERTEX
  8
Unknown_Line_Type
  70
32
  10
1810743.94
  20
3199223.68
  30
2148
  0
VERTEX
  8
Unknown_Line_Type
  70
32
  10
1810745.28
  20
3199224.40
  30
2148
  0
VERTEX
  8
Unknown_Line_Type
  70
32
  10
1810746.73
  20
3199225.00
  30
2148
  0
VERTEX
  8
Unknown_Line_Type
  70
32
  10
1810748.26
  20
3199225.53
  30
2148
  0
VERTEX
  8
Unknown_Line_Type
  70
32
  10
1810749.83
  20
3199226.01
  30
2148
  0
VERTEX
  8
Unknown_Line_Type
  70
32
  10
1810752.97
  20
3199226.87
  30
2148
  0
VERTEX
  8
Unknown_Line_Type
  70
32
  10
1810754.12
  20
3199227.24
  30
2148
  0
VERTEX
  8
Unknown_Line_Type
  70
32
  10
1810755.25
  20
3199227.67
  30
2148
  0
VERTEX
  8
Unknown_Line_Type
  70
32
  10
1810756.00
  20
3199228.03
  30
2148
  0
SEQEND
  8
Unknown_Line_Type
  0
POLYLINE
  8
Unknown_Line_Type
  70
8
  66
1
 62
0
 39
0
  0
VERTEX
  8
Unknown_Line_Type
  70
32
  10
1810542.25
  20
3199159.39
  30
2150
  0
VERTEX
  8
Unknown_Line_Type
  70
32
  10
1810542.45
  20
3199159.63
  30
2150
  0
VERTEX
  8
Unknown_Line_Type
  70
32
  10
1810542.74
  20
3199159.91
  30
2150
  0
VERTEX
  8
Unknown_Line_Type
  70
32
  10
1810543.12
  20
3199160.11
  30
2150
  0
VERTEX
  8
Unknown_Line_Type
  70
32
  10
1810543.33
  20
3199160.14
  30
2150
  0
VERTEX
  8
Unknown_Line_Type
  70
32
  10
1810543.54
  20
3199160.12
  30
2150
  0
VERTEX
  8
Unknown_Line_Type
  70
32
  10
1810543.91
  20
3199159.96
  30
2150
  0
VERTEX
  8
Unknown_Line_Type
  70
32
  10
1810544.43
  20
3199159.62
  30
2150
  0
VERTEX
  8
Unknown_Line_Type
  70
32
  10
1810545.11
  20
3199159.11
  30
2150
  0
VERTEX
  8
Unknown_Line_Type
  70
32
  10
1810545.56
  20
3199158.67
  30
2150
  0
VERTEX
  8
Unknown_Line_Type
  70
32
  10
1810545.94
  20
3199158.17
  30
2150
  0
VERTEX
  8
Unknown_Line_Type
  70
32
  10
1810549.11
  20
3199153.44
  30
2150
  0
SEQEND
  8
Unknown_Line_Type
  0
POLYLINE
  8
Unknown_Line_Type
  70
8
  66
1
 62
0
 39
0
  0
VERTEX
  8
Unknown_Line_Type
  70
32
  10
1810549.34
  20
3199153.24
  30
2150
  0
VERTEX
  8
Unknown_Line_Type
  70
32
  10
1810549.63
  20
3199153.37
  30
2150
  0
VERTEX
  8
Unknown_Line_Type
  70
32
  10
1810550.44
  20
3199153.49
  30
2150
  0
VERTEX
  8
Unknown_Line_Type
  70
32
  10
1810551.68
  20
3199153.56
  30
2150
  0
VERTEX
  8
Unknown_Line_Type
  70
32
  10
1810553.27
  20
3199153.54
  30
2150
  0
VERTEX
  8
Unknown_Line_Type
  70
32
  10
1810555.23
  20
3199153.37
  30
2150
  0
VERTEX
  8
Unknown_Line_Type
  70
32
  10
1810557.40
  20
3199153.06
  30
2150
  0
VERTEX
  8
Unknown_Line_Type
  70
32
  10
1810559.68
  20
3199152.61
  30
2150
  0
VERTEX
  8
Unknown_Line_Type
  70
32
  10
1810561.98
  20
3199152.06
  30
2150
  0
VERTEX
  8
Unknown_Line_Type
  70
32
  10
1810564.21
  20
3199151.43
  30
2150
  0
VERTEX
  8
Unknown_Line_Type
  70
32
  10
1810568.03
  20
3199150.18
  30
2150
  0
VERTEX
  8
Unknown_Line_Type
  70
32
  10
1810569.67
  20
3199149.68
  30
2150
  0
VERTEX
  8
Unknown_Line_Type
  70
32
  10
1810571.12
  20
3199149.34
  30
2150
  0
VERTEX
  8
Unknown_Line_Type
  70
32
  10
1810572.57
  20
3199149.10
  30
2150
  0
VERTEX
  8
Unknown_Line_Type
  70
32
  10
1810574.04
  20
3199148.96
  30
2150
  0
VERTEX
  8
Unknown_Line_Type
  70
32
  10
1810575.51
  20
3199148.94
  30
2150
  0
VERTEX
  8
Unknown_Line_Type
  70
32
  10
1810577.14
  20
3199149.07
  30
2150
  0
VERTEX
  8
Unknown_Line_Type
  70
32
  10
1810578.77
  20
3199149.30
  30
2150
  0
VERTEX
  8
Unknown_Line_Type
  70
32
  10
1810580.40
  20
3199149.61
  30
2150
  0
VERTEX
  8
Unknown_Line_Type
  70
32
  10
1810582.01
  20
3199149.96
  30
2150
  0
VERTEX
  8
Unknown_Line_Type
  70
32
  10
1810586.99
  20
3199151.08
  30
2150
  0
VERTEX
  8
Unknown_Line_Type
  70
32
  10
1810589.81
  20
3199151.77
  30
2150
  0
VERTEX
  8
Unknown_Line_Type
  70
32
  10
1810591.00
  20
3199152.03
  30
2150
  0
VERTEX
  8
Unknown_Line_Type
  70
32
  10
1810592.48
  20
3199152.19
  30
2150
  0
VERTEX
  8
Unknown_Line_Type
  70
32
  10
1810593.98
  20
3199152.19
  30
2150
  0
VERTEX
  8
Unknown_Line_Type
  70
32
  10
1810595.48
  20
3199152.04
  30
2150
  0
VERTEX
  8
Unknown_Line_Type
  70
32
  10
1810596.93
  20
3199151.77
  30
2150
  0
VERTEX
  8
Unknown_Line_Type
  70
32
  10
1810598.33
  20
3199151.36
  30
2150
  0
VERTEX
  8
Unknown_Line_Type
  70
32
  10
1810600.89
  20
3199150.31
  30
2150
  0
VERTEX
  8
Unknown_Line_Type
  70
32
  10
1810602.43
  20
3199149.81
  30
2150
  0
VERTEX
  8
Unknown_Line_Type
  70
32
  10
1810604.06
  20
3199149.43
  30
2150
  0
VERTEX
  8
Unknown_Line_Type
  70
32
  10
1810605.75
  20
3199149.15
  30
2150
  0
VERTEX
  8
Unknown_Line_Type
  70
32
  10
1810607.47
  20
3199149.00
  30
2150
  0
VERTEX
  8
Unknown_Line_Type
  70
32
  10
1810608.53
  20
3199148.97
  30
2150
  0
VERTEX
  8
Unknown_Line_Type
  70
32
  10
1810609.59
  20
3199148.98
  30
2150
  0
VERTEX
  8
Unknown_Line_Type
  70
32
  10
1810611.20
  20
3199149.08
  30
2150
  0
VERTEX
  8
Unknown_Line_Type
  70
32
  10
1810612.77
  20
3199149.23
  30
2150
  0
VERTEX
  8
Unknown_Line_Type
  70
32
  10
1810613.91
  20
3199149.38
  30
2150
  0
VERTEX
  8
Unknown_Line_Type
  70
32
  10
1810615.02
  20
3199149.60
  30
2150
  0
VERTEX
  8
Unknown_Line_Type
  70
32
  10
1810616.31
  20
3199150.02
  30
2150
  0
VERTEX
  8
Unknown_Line_Type
  70
32
  10
1810617.59
  20
3199150.58
  30
2150
  0
VERTEX
  8
Unknown_Line_Type
  70
32
  10
1810621.51
  20
3199152.48
  30
2150
  0
VERTEX
  8
Unknown_Line_Type
  70
32
  10
1810622.86
  20
3199153.07
  30
2150
  0
VERTEX
  8
Unknown_Line_Type
  70
32
  10
1810624.24
  20
3199153.59
  30
2150
  0
VERTEX
  8
Unknown_Line_Type
  70
32
  10
1810625.74
  20
3199154.05
  30
2150
  0
VERTEX
  8
Unknown_Line_Type
  70
32
  10
1810631.95
  20
3199155.81
  30
2150
  0
VERTEX
  8
Unknown_Line_Type
  70
32
  10
1810636.32
  20
3199156.96
  30
2150
  0
VERTEX
  8
Unknown_Line_Type
  70
32
  10
1810637.68
  20
3199157.36
  30
2150
  0
VERTEX
  8
Unknown_Line_Type
  70
32
  10
1810638.99
  20
3199157.86
  30
2150
  0
VERTEX
  8
Unknown_Line_Type
  70
32
  10
1810640.26
  20
3199158.49
  30
2150
  0
VERTEX
  8
Unknown_Line_Type
  70
32
  10
1810641.49
  20
3199159.21
  30
2150
  0
VERTEX
  8
Unknown_Line_Type
  70
32
  10
1810643.93
  20
3199160.73
  30
2150
  0
VERTEX
  8
Unknown_Line_Type
  70
32
  10
1810645.20
  20
3199161.45
  30
2150
  0
VERTEX
  8
Unknown_Line_Type
  70
32
  10
1810646.62
  20
3199162.11
  30
2150
  0
VERTEX
  8
Unknown_Line_Type
  70
32
  10
1810648.09
  20
3199162.67
  30
2150
  0
VERTEX
  8
Unknown_Line_Type
  70
32
  10
1810649.50
  20
3199163.10
  30
2150
  0
VERTEX
  8
Unknown_Line_Type
  70
32
  10
1810650.94
  20
3199163.46
  30
2150
  0
VERTEX
  8
Unknown_Line_Type
  70
32
  10
1810655.50
  20
3199164.48
  30
2150
  0
VERTEX
  8
Unknown_Line_Type
  70
32
  10
1810656.98
  20
3199164.91
  30
2150
  0
VERTEX
  8
Unknown_Line_Type
  70
32
  10
1810658.35
  20
3199165.46
  30
2150
  0
VERTEX
  8
Unknown_Line_Type
  70
32
  10
1810659.59
  20
3199166.17
  30
2150
  0
VERTEX
  8
Unknown_Line_Type
  70
32
  10
1810660.53
  20
3199166.96
  30
2150
  0
VERTEX
  8
Unknown_Line_Type
  70
32
  10
1810661.39
  20
3199167.88
  30
2150
  0
VERTEX
  8
Unknown_Line_Type
  70
32
  10
1810663.04
  20
3199169.88
  30
2150
  0
VERTEX
  8
Unknown_Line_Type
  70
32
  10
1810664.04
  20
3199170.98
  30
2150
  0
VERTEX
  8
Unknown_Line_Type
  70
32
  10
1810665.10
  20
3199172.01
  30
2150
  0
VERTEX
  8
Unknown_Line_Type
  70
32
  10
1810666.23
  20
3199172.93
  30
2150
  0
VERTEX
  8
Unknown_Line_Type
  70
32
  10
1810667.43
  20
3199173.66
  30
2150
  0
VERTEX
  8
Unknown_Line_Type
  70
32
  10
1810668.72
  20
3199174.17
  30
2150
  0
VERTEX
  8
Unknown_Line_Type
  70
32
  10
1810669.82
  20
3199174.37
  30
2150
  0
VERTEX
  8
Unknown_Line_Type
  70
32
  10
1810670.96
  20
3199174.40
  30
2150
  0
VERTEX
  8
Unknown_Line_Type
  70
32
  10
1810672.14
  20
3199174.31
  30
2150
  0
VERTEX
  8
Unknown_Line_Type
  70
32
  10
1810673.41
  20
3199174.11
  30
2150
  0
VERTEX
  8
Unknown_Line_Type
  70
32
  10
1810674.69
  20
3199173.83
  30
2150
  0
VERTEX
  8
Unknown_Line_Type
  70
32
  10
1810676.13
  20
3199173.43
  30
2150
  0
VERTEX
  8
Unknown_Line_Type
  70
32
  10
1810679.01
  20
3199172.57
  30
2150
  0
VERTEX
  8
Unknown_Line_Type
  70
32
  10
1810680.44
  20
3199172.20
  30
2150
  0
VERTEX
  8
Unknown_Line_Type
  70
32
  10
1810681.86
  20
3199171.93
  30
2150
  0
VERTEX
  8
Unknown_Line_Type
  70
32
  10
1810683.26
  20
3199171.81
  30
2150
  0
VERTEX
  8
Unknown_Line_Type
  70
32
  10
1810684.27
  20
3199171.85
  30
2150
  0
VERTEX
  8
Unknown_Line_Type
  70
32
  10
1810685.26
  20
3199172.00
  30
2150
  0
VERTEX
  8
Unknown_Line_Type
  70
32
  10
1810686.58
  20
3199172.35
  30
2150
  0
VERTEX
  8
Unknown_Line_Type
  70
32
  10
1810689.22
  20
3199173.26
  30
2150
  0
VERTEX
  8
Unknown_Line_Type
  70
32
  10
1810690.71
  20
3199173.70
  30
2150
  0
VERTEX
  8
Unknown_Line_Type
  70
32
  10
1810692.27
  20
3199174.07
  30
2150
  0
VERTEX
  8
Unknown_Line_Type
  70
32
  10
1810693.87
  20
3199174.39
  30
2150
  0
VERTEX
  8
Unknown_Line_Type
  70
32
  10
1810698.54
  20
3199175.18
  30
2150
  0
VERTEX
  8
Unknown_Line_Type
  70
32
  10
1810700.36
  20
3199175.58
  30
2150
  0
VERTEX
  8
Unknown_Line_Type
  70
32
  10
1810702.15
  20
3199176.07
  30
2150
  0
VERTEX
  8
Unknown_Line_Type
  70
32
  10
1810703.93
  20
3199176.66
  30
2150
  0
VERTEX
  8
Unknown_Line_Type
  70
32
  10
1810705.44
  20
3199177.26
  30
2150
  0
VERTEX
  8
Unknown_Line_Type
  70
32
  10
1810706.93
  20
3199177.93
  30
2150
  0
VERTEX
  8
Unknown_Line_Type
  70
32
  10
1810708.41
  20
3199178.65
  30
2150
  0
VERTEX
  8
Unknown_Line_Type
  70
32
  10
1810712.91
  20
3199181.01
  30
2150
  0
VERTEX
  8
Unknown_Line_Type
  70
32
  10
1810714.45
  20
3199181.75
  30
2150
  0
VERTEX
  8
Unknown_Line_Type
  70
32
  10
1810716.03
  20
3199182.38
  30
2150
  0
VERTEX
  8
Unknown_Line_Type
  70
32
  10
1810717.04
  20
3199182.71
  30
2150
  0
VERTEX
  8
Unknown_Line_Type
  70
32
  10
1810718.65
  20
3199183.13
  30
2150
  0
VERTEX
  8
Unknown_Line_Type
  70
32
  10
1810720.29
  20
3199183.47
  30
2150
  0
VERTEX
  8
Unknown_Line_Type
  70
32
  10
1810725.28
  20
3199184.36
  30
2150
  0
VERTEX
  8
Unknown_Line_Type
  70
32
  10
1810726.94
  20
3199184.72
  30
2150
  0
VERTEX
  8
Unknown_Line_Type
  70
32
  10
1810728.57
  20
3199185.13
  30
2150
  0
VERTEX
  8
Unknown_Line_Type
  70
32
  10
1810730.13
  20
3199185.63
  30
2150
  0
VERTEX
  8
Unknown_Line_Type
  70
32
  10
1810731.62
  20
3199186.25
  30
2150
  0
VERTEX
  8
Unknown_Line_Type
  70
32
  10
1810733.00
  20
3199187.02
  30
2150
  0
VERTEX
  8
Unknown_Line_Type
  70
32
  10
1810734.24
  20
3199187.97
  30
2150
  0
VERTEX
  8
Unknown_Line_Type
  70
32
  10
1810735.39
  20
3199189.05
  30
2150
  0
VERTEX
  8
Unknown_Line_Type
  70
32
  10
1810737.62
  20
3199191.37
  30
2150
  0
VERTEX
  8
Unknown_Line_Type
  70
32
  10
1810738.77
  20
3199192.51
  30
2150
  0
VERTEX
  8
Unknown_Line_Type
  70
32
  10
1810739.95
  20
3199193.53
  30
2150
  0
VERTEX
  8
Unknown_Line_Type
  70
32
  10
1810741.20
  20
3199194.45
  30
2150
  0
VERTEX
  8
Unknown_Line_Type
  70
32
  10
1810742.54
  20
3199195.25
  30
2150
  0
VERTEX
  8
Unknown_Line_Type
  70
32
  10
1810744.04
  20
3199195.93
  30
2150
  0
VERTEX
  8
Unknown_Line_Type
  70
32
  10
1810745.61
  20
3199196.46
  30
2150
  0
VERTEX
  8
Unknown_Line_Type
  70
32
  10
1810747.25
  20
3199196.87
  30
2150
  0
VERTEX
  8
Unknown_Line_Type
  70
32
  10
1810748.92
  20
3199197.16
  30
2150
  0
VERTEX
  8
Unknown_Line_Type
  70
32
  10
1810750.68
  20
3199197.36
  30
2150
  0
VERTEX
  8
Unknown_Line_Type
  70
32
  10
1810752.45
  20
3199197.49
  30
2150
  0
VERTEX
  8
Unknown_Line_Type
  70
32
  10
1810756.00
  20
3199197.65
  30
2150
  0
SEQEND
  8
Unknown_Line_Type
  0
POLYLINE
  8
Unknown_Line_Type
  70
8
  66
1
 62
0
 39
0
  0
VERTEX
  8
Unknown_Line_Type
  70
32
  10
1810571.26
  20
3199134.23
  30
2152
  0
VERTEX
  8
Unknown_Line_Type
  70
32
  10
1810571.35
  20
3199134.24
  30
2152
  0
VERTEX
  8
Unknown_Line_Type
  70
32
  10
1810571.90
  20
3199134.57
  30
2152
  0
VERTEX
  8
Unknown_Line_Type
  70
32
  10
1810574.24
  20
3199136.04
  30
2152
  0
VERTEX
  8
Unknown_Line_Type
  70
32
  10
1810575.86
  20
3199136.89
  30
2152
  0
VERTEX
  8
Unknown_Line_Type
  70
32
  10
1810577.66
  20
3199137.60
  30
2152
  0
VERTEX
  8
Unknown_Line_Type
  70
32
  10
1810579.32
  20
3199138.00
  30
2152
  0
VERTEX
  8
Unknown_Line_Type
  70
32
  10
1810580.99
  20
3199138.08
  30
2152
  0
VERTEX
  8
Unknown_Line_Type
  70
32
  10
1810582.67
  20
3199137.78
  30
2152
  0
VERTEX
  8
Unknown_Line_Type
  70
32
  10
1810584.22
  20
3199137.13
  30
2152
  0
VERTEX
  8
Unknown_Line_Type
  70
32
  10
1810585.56
  20
3199136.23
  30
2152
  0
VERTEX
  8
Unknown_Line_Type
  70
32
  10
1810586.72
  20
3199135.17
  30
2152
  0
VERTEX
  8
Unknown_Line_Type
  70
32
  10
1810588.96
  20
3199133.00
  30
2152
  0
VERTEX
  8
Unknown_Line_Type
  70
32
  10
1810590.10
  20
3199132.00
  30
2152
  0
VERTEX
  8
Unknown_Line_Type
  70
32
  10
1810591.28
  20
3199131.14
  30
2152
  0
VERTEX
  8
Unknown_Line_Type
  70
32
  10
1810592.52
  20
3199130.47
  30
2152
  0
VERTEX
  8
Unknown_Line_Type
  70
32
  10
1810593.96
  20
3199130.01
  30
2152
  0
VERTEX
  8
Unknown_Line_Type
  70
32
  10
1810596.87
  20
3199129.39
  30
2152
  0
VERTEX
  8
Unknown_Line_Type
  70
32
  10
1810599.78
  20
3199128.86
  30
2152
  0
VERTEX
  8
Unknown_Line_Type
  70
32
  10
1810601.26
  20
3199128.68
  30
2152
  0
VERTEX
  8
Unknown_Line_Type
  70
32
  10
1810602.03
  20
3199128.62
  30
2152
  0
VERTEX
  8
Unknown_Line_Type
  70
32
  10
1810602.99
  20
3199128.60
  30
2152
  0
VERTEX
  8
Unknown_Line_Type
  70
32
  10
1810603.97
  20
3199128.63
  30
2152
  0
VERTEX
  8
Unknown_Line_Type
  70
32
  10
1810605.51
  20
3199128.76
  30
2152
  0
VERTEX
  8
Unknown_Line_Type
  70
32
  10
1810610.26
  20
3199129.33
  30
2152
  0
VERTEX
  8
Unknown_Line_Type
  70
32
  10
1810611.88
  20
3199129.50
  30
2152
  0
VERTEX
  8
Unknown_Line_Type
  70
32
  10
1810613.30
  20
3199129.60
  30
2152
  0
VERTEX
  8
Unknown_Line_Type
  70
32
  10
1810616.29
  20
3199129.69
  30
2152
  0
VERTEX
  8
Unknown_Line_Type
  70
32
  10
1810625.09
  20
3199129.71
  30
2152
  0
VERTEX
  8
Unknown_Line_Type
  70
32
  10
1810628.47
  20
3199129.82
  30
2152
  0
VERTEX
  8
Unknown_Line_Type
  70
32
  10
1810630.02
  20
3199129.94
  30
2152
  0
VERTEX
  8
Unknown_Line_Type
  70
32
  10
1810631.56
  20
3199130.14
  30
2152
  0
VERTEX
  8
Unknown_Line_Type
  70
32
  10
1810633.06
  20
3199130.45
  30
2152
  0
VERTEX
  8
Unknown_Line_Type
  70
32
  10
1810634.60
  20
3199130.92
  30
2152
  0
VERTEX
  8
Unknown_Line_Type
  70
32
  10
1810636.11
  20
3199131.52
  30
2152
  0
VERTEX
  8
Unknown_Line_Type
  70
32
  10
1810637.59
  20
3199132.23
  30
2152
  0
VERTEX
  8
Unknown_Line_Type
  70
32
  10
1810639.05
  20
3199133.01
  30
2152
  0
VERTEX
  8
Unknown_Line_Type
  70
32
  10
1810640.48
  20
3199133.85
  30
2152
  0
VERTEX
  8
Unknown_Line_Type
  70
32
  10
1810641.92
  20
3199134.75
  30
2152
  0
VERTEX
  8
Unknown_Line_Type
  70
32
  10
1810646.21
  20
3199137.55
  30
2152
  0
VERTEX
  8
Unknown_Line_Type
  70
32
  10
1810647.67
  20
3199138.44
  30
2152
  0
VERTEX
  8
Unknown_Line_Type
  70
32
  10
1810650.24
  20
3199139.90
  30
2152
  0
VERTEX
  8
Unknown_Line_Type
  70
32
  10
1810654.32
  20
3199142.06
  30
2152
  0
VERTEX
  8
Unknown_Line_Type
  70
32
  10
1810655.72
  20
3199142.75
  30
2152
  0
VERTEX
  8
Unknown_Line_Type
  70
32
  10
1810657.14
  20
3199143.37
  30
2152
  0
VERTEX
  8
Unknown_Line_Type
  70
32
  10
1810658.58
  20
3199143.93
  30
2152
  0
VERTEX
  8
Unknown_Line_Type
  70
32
  10
1810660.02
  20
3199144.43
  30
2152
  0
VERTEX
  8
Unknown_Line_Type
  70
32
  10
1810663.11
  20
3199145.41
  30
2152
  0
VERTEX
  8
Unknown_Line_Type
  70
32
  10
1810664.75
  20
3199145.88
  30
2152
  0
VERTEX
  8
Unknown_Line_Type
  70
32
  10
1810666.36
  20
3199146.27
  30
2152
  0
VERTEX
  8
Unknown_Line_Type
  70
32
  10
1810667.97
  20
3199146.54
  30
2152
  0
VERTEX
  8
Unknown_Line_Type
  70
32
  10
1810668.89
  20
3199146.61
  30
2152
  0
VERTEX
  8
Unknown_Line_Type
  70
32
  10
1810669.80
  20
3199146.62
  30
2152
  0
VERTEX
  8
Unknown_Line_Type
  70
32
  10
1810671.33
  20
3199146.50
  30
2152
  0
VERTEX
  8
Unknown_Line_Type
  70
32
  10
1810672.83
  20
3199146.25
  30
2152
  0
VERTEX
  8
Unknown_Line_Type
  70
32
  10
1810675.72
  20
3199145.71
  30
2152
  0
VERTEX
  8
Unknown_Line_Type
  70
32
  10
1810677.10
  20
3199145.57
  30
2152
  0
VERTEX
  8
Unknown_Line_Type
  70
32
  10
1810678.42
  20
3199145.61
  30
2152
  0
VERTEX
  8
Unknown_Line_Type
  70
32
  10
1810679.84
  20
3199145.94
  30
2152
  0
VERTEX
  8
Unknown_Line_Type
  70
32
  10
1810682.75
  20
3199146.94
  30
2152
  0
VERTEX
  8
Unknown_Line_Type
  70
32
  10
1810684.32
  20
3199147.43
  30
2152
  0
VERTEX
  8
Unknown_Line_Type
  70
32
  10
1810685.95
  20
3199147.90
  30
2152
  0
VERTEX
  8
Unknown_Line_Type
  70
32
  10
1810687.64
  20
3199148.33
  30
2152
  0
VERTEX
  8
Unknown_Line_Type
  70
32
  10
1810689.37
  20
3199148.69
  30
2152
  0
VERTEX
  8
Unknown_Line_Type
  70
32
  10
1810694.26
  20
3199149.44
  30
2152
  0
VERTEX
  8
Unknown_Line_Type
  70
32
  10
1810695.87
  20
3199149.74
  30
2152
  0
VERTEX
  8
Unknown_Line_Type
  70
32
  10
1810697.13
  20
3199150.05
  30
2152
  0
VERTEX
  8
Unknown_Line_Type
  70
32
  10
1810698.37
  20
3199150.45
  30
2152
  0
VERTEX
  8
Unknown_Line_Type
  70
32
  10
1810699.56
  20
3199150.93
  30
2152
  0
VERTEX
  8
Unknown_Line_Type
  70
32
  10
1810701.10
  20
3199151.74
  30
2152
  0
VERTEX
  8
Unknown_Line_Type
  70
32
  10
1810702.58
  20
3199152.69
  30
2152
  0
VERTEX
  8
Unknown_Line_Type
  70
32
  10
1810704.01
  20
3199153.73
  30
2152
  0
VERTEX
  8
Unknown_Line_Type
  70
32
  10
1810708.15
  20
3199156.98
  30
2152
  0
VERTEX
  8
Unknown_Line_Type
  70
32
  10
1810709.24
  20
3199157.77
  30
2152
  0
VERTEX
  8
Unknown_Line_Type
  70
32
  10
1810710.35
  20
3199158.48
  30
2152
  0
VERTEX
  8
Unknown_Line_Type
  70
32
  10
1810711.50
  20
3199159.07
  30
2152
  0
VERTEX
  8
Unknown_Line_Type
  70
32
  10
1810712.66
  20
3199159.49
  30
2152
  0
VERTEX
  8
Unknown_Line_Type
  70
32
  10
1810713.86
  20
3199159.77
  30
2152
  0
VERTEX
  8
Unknown_Line_Type
  70
32
  10
1810715.09
  20
3199159.92
  30
2152
  0
VERTEX
  8
Unknown_Line_Type
  70
32
  10
1810716.42
  20
3199159.93
  30
2152
  0
VERTEX
  8
Unknown_Line_Type
  70
32
  10
1810717.76
  20
3199159.82
  30
2152
  0
VERTEX
  8
Unknown_Line_Type
  70
32
  10
1810719.09
  20
3199159.58
  30
2152
  0
VERTEX
  8
Unknown_Line_Type
  70
32
  10
1810720.56
  20
3199159.21
  30
2152
  0
VERTEX
  8
Unknown_Line_Type
  70
32
  10
1810723.46
  20
3199158.34
  30
2152
  0
VERTEX
  8
Unknown_Line_Type
  70
32
  10
1810725.15
  20
3199157.91
  30
2152
  0
VERTEX
  8
Unknown_Line_Type
  70
32
  10
1810726.85
  20
3199157.66
  30
2152
  0
VERTEX
  8
Unknown_Line_Type
  70
32
  10
1810728.22
  20
3199157.63
  30
2152
  0
VERTEX
  8
Unknown_Line_Type
  70
32
  10
1810729.59
  20
3199157.76
  30
2152
  0
VERTEX
  8
Unknown_Line_Type
  70
32
  10
1810731.21
  20
3199158.09
  30
2152
  0
VERTEX
  8
Unknown_Line_Type
  70
32
  10
1810732.83
  20
3199158.58
  30
2152
  0
VERTEX
  8
Unknown_Line_Type
  70
32
  10
1810734.44
  20
3199159.20
  30
2152
  0
VERTEX
  8
Unknown_Line_Type
  70
32
  10
1810736.04
  20
3199159.91
  30
2152
  0
VERTEX
  8
Unknown_Line_Type
  70
32
  10
1810737.62
  20
3199160.70
  30
2152
  0
VERTEX
  8
Unknown_Line_Type
  70
32
  10
1810739.01
  20
3199161.46
  30
2152
  0
VERTEX
  8
Unknown_Line_Type
  70
32
  10
1810743.14
  20
3199163.86
  30
2152
  0
VERTEX
  8
Unknown_Line_Type
  70
32
  10
1810744.54
  20
3199164.64
  30
2152
  0
VERTEX
  8
Unknown_Line_Type
  70
32
  10
1810746.01
  20
3199165.40
  30
2152
  0
VERTEX
  8
Unknown_Line_Type
  70
32
  10
1810747.50
  20
3199166.11
  30
2152
  0
VERTEX
  8
Unknown_Line_Type
  70
32
  10
1810749.02
  20
3199166.77
  30
2152
  0
VERTEX
  8
Unknown_Line_Type
  70
32
  10
1810750.56
  20
3199167.36
  30
2152
  0
VERTEX
  8
Unknown_Line_Type
  70
32
  10
1810752.21
  20
3199167.91
  30
2152
  0
VERTEX
  8
Unknown_Line_Type
  70
32
  10
1810753.87
  20
3199168.40
  30
2152
  0
VERTEX
  8
Unknown_Line_Type
  70
32
  10
1810756.00
  20
3199168.98
  30
2152
  0
SEQEND
  8
Unknown_Line_Type
  0
POLYLINE
  8
Unknown_Line_Type
  70
8
  66
1
 62
0
 39
0
  0
VERTEX
  8
Unknown_Line_Type
  70
32
  10
1810593.15
  20
3199115.24
  30
2154
  0
VERTEX
  8
Unknown_Line_Type
  70
32
  10
1810593.39
  20
3199115.26
  30
2154
  0
VERTEX
  8
Unknown_Line_Type
  70
32
  10
1810593.90
  20
3199115.44
  30
2154
  0
VERTEX
  8
Unknown_Line_Type
  70
32
  10
1810595.80
  20
3199116.29
  30
2154
  0
VERTEX
  8
Unknown_Line_Type
  70
32
  10
1810597.05
  20
3199116.81
  30
2154
  0
VERTEX
  8
Unknown_Line_Type
  70
32
  10
1810599.89
  20
3199117.80
  30
2154
  0
VERTEX
  8
Unknown_Line_Type
  70
32
  10
1810604.88
  20
3199119.76
  30
2154
  0
VERTEX
  8
Unknown_Line_Type
  70
32
  10
1810606.38
  20
3199120.28
  30
2154
  0
VERTEX
  8
Unknown_Line_Type
  70
32
  10
1810607.83
  20
3199120.68
  30
2154
  0
VERTEX
  8
Unknown_Line_Type
  70
32
  10
1810609.07
  20
3199120.95
  30
2154
  0
VERTEX
  8
Unknown_Line_Type
  70
32
  10
1810610.32
  20
3199121.13
  30
2154
  0
VERTEX
  8
Unknown_Line_Type
  70
32
  10
1810611.63
  20
3199121.23
  30
2154
  0
VERTEX
  8
Unknown_Line_Type
  70
32
  10
1810612.95
  20
3199121.25
  30
2154
  0
VERTEX
  8
Unknown_Line_Type
  70
32
  10
1810614.27
  20
3199121.18
  30
2154
  0
VERTEX
  8
Unknown_Line_Type
  70
32
  10
1810616.05
  20
3199120.95
  30
2154
  0
VERTEX
  8
Unknown_Line_Type
  70
32
  10
1810617.80
  20
3199120.56
  30
2154
  0
VERTEX
  8
Unknown_Line_Type
  70
32
  10
1810619.24
  20
3199120.13
  30
2154
  0
VERTEX
  8
Unknown_Line_Type
  70
32
  10
1810622.09
  20
3199119.18
  30
2154
  0
VERTEX
  8
Unknown_Line_Type
  70
32
  10
1810623.52
  20
3199118.77
  30
2154
  0
VERTEX
  8
Unknown_Line_Type
  70
32
  10
1810625.07
  20
3199118.44
  30
2154
  0
VERTEX
  8
Unknown_Line_Type
  70
32
  10
1810628.25
  20
3199117.87
  30
2154
  0
VERTEX
  8
Unknown_Line_Type
  70
32
  10
1810631.45
  20
3199117.18
  30
2154
  0
VERTEX
  8
Unknown_Line_Type
  70
32
  10
1810633.04
  20
3199116.78
  30
2154
  0
VERTEX
  8
Unknown_Line_Type
  70
32
  10
1810634.61
  20
3199116.33
  30
2154
  0
VERTEX
  8
Unknown_Line_Type
  70
32
  10
1810637.14
  20
3199115.53
  30
2154
  0
VERTEX
  8
Unknown_Line_Type
  70
32
  10
1810638.41
  20
3199115.19
  30
2154
  0
VERTEX
  8
Unknown_Line_Type
  70
32
  10
1810640.16
  20
3199114.85
  30
2154
  0
VERTEX
  8
Unknown_Line_Type
  70
32
  10
1810641.95
  20
3199114.67
  30
2154
  0
VERTEX
  8
Unknown_Line_Type
  70
32
  10
1810643.75
  20
3199114.65
  30
2154
  0
VERTEX
  8
Unknown_Line_Type
  70
32
  10
1810645.63
  20
3199114.80
  30
2154
  0
VERTEX
  8
Unknown_Line_Type
  70
32
  10
1810647.50
  20
3199115.11
  30
2154
  0
VERTEX
  8
Unknown_Line_Type
  70
32
  10
1810649.36
  20
3199115.54
  30
2154
  0
VERTEX
  8
Unknown_Line_Type
  70
32
  10
1810651.20
  20
3199116.07
  30
2154
  0
VERTEX
  8
Unknown_Line_Type
  70
32
  10
1810652.79
  20
3199116.62
  30
2154
  0
VERTEX
  8
Unknown_Line_Type
  70
32
  10
1810655.92
  20
3199117.77
  30
2154
  0
VERTEX
  8
Unknown_Line_Type
  70
32
  10
1810657.47
  20
3199118.32
  30
2154
  0
VERTEX
  8
Unknown_Line_Type
  70
32
  10
1810662.43
  20
3199119.81
  30
2154
  0
VERTEX
  8
Unknown_Line_Type
  70
32
  10
1810663.96
  20
3199120.35
  30
2154
  0
VERTEX
  8
Unknown_Line_Type
  70
32
  10
1810665.36
  20
3199121.04
  30
2154
  0
VERTEX
  8
Unknown_Line_Type
  70
32
  10
1810666.50
  20
3199121.81
  30
2154
  0
VERTEX
  8
Unknown_Line_Type
  70
32
  10
1810668.63
  20
3199123.55
  30
2154
  0
VERTEX
  8
Unknown_Line_Type
  70
32
  10
1810669.75
  20
3199124.37
  30
2154
  0
VERTEX
  8
Unknown_Line_Type
  70
32
  10
1810671.14
  20
3199125.17
  30
2154
  0
VERTEX
  8
Unknown_Line_Type
  70
32
  10
1810671.53
  20
3199125.35
  30
2154
  0
VERTEX
  8
Unknown_Line_Type
  70
32
  10
1810672.86
  20
3199125.85
  30
2154
  0
VERTEX
  8
Unknown_Line_Type
  70
32
  10
1810674.26
  20
3199126.22
  30
2154
  0
VERTEX
  8
Unknown_Line_Type
  70
32
  10
1810675.72
  20
3199126.47
  30
2154
  0
VERTEX
  8
Unknown_Line_Type
  70
32
  10
1810677.29
  20
3199126.64
  30
2154
  0
VERTEX
  8
Unknown_Line_Type
  70
32
  10
1810680.46
  20
3199126.83
  30
2154
  0
VERTEX
  8
Unknown_Line_Type
  70
32
  10
1810682.03
  20
3199126.96
  30
2154
  0
VERTEX
  8
Unknown_Line_Type
  70
32
  10
1810683.57
  20
3199127.18
  30
2154
  0
VERTEX
  8
Unknown_Line_Type
  70
32
  10
1810685.06
  20
3199127.53
  30
2154
  0
VERTEX
  8
Unknown_Line_Type
  70
32
  10
1810686.60
  20
3199128.12
  30
2154
  0
VERTEX
  8
Unknown_Line_Type
  70
32
  10
1810691.08
  20
3199130.33
  30
2154
  0
VERTEX
  8
Unknown_Line_Type
  70
32
  10
1810692.34
  20
3199130.84
  30
2154
  0
VERTEX
  8
Unknown_Line_Type
  70
32
  10
1810695.02
  20
3199131.75
  30
2154
  0
VERTEX
  8
Unknown_Line_Type
  70
32
  10
1810696.44
  20
3199132.12
  30
2154
  0
VERTEX
  8
Unknown_Line_Type
  70
32
  10
1810697.96
  20
3199132.37
  30
2154
  0
VERTEX
  8
Unknown_Line_Type
  70
32
  10
1810699.51
  20
3199132.52
  30
2154
  0
VERTEX
  8
Unknown_Line_Type
  70
32
  10
1810701.08
  20
3199132.59
  30
2154
  0
VERTEX
  8
Unknown_Line_Type
  70
32
  10
1810707.79
  20
3199132.68
  30
2154
  0
VERTEX
  8
Unknown_Line_Type
  70
32
  10
1810709.19
  20
3199132.62
  30
2154
  0
VERTEX
  8
Unknown_Line_Type
  70
32
  10
1810710.54
  20
3199132.41
  30
2154
  0
VERTEX
  8
Unknown_Line_Type
  70
32
  10
1810711.90
  20
3199131.95
  30
2154
  0
VERTEX
  8
Unknown_Line_Type
  70
32
  10
1810713.19
  20
3199131.32
  30
2154
  0
VERTEX
  8
Unknown_Line_Type
  70
32
  10
1810715.40
  20
3199130.09
  30
2154
  0
VERTEX
  8
Unknown_Line_Type
  70
32
  10
1810716.49
  20
3199129.57
  30
2154
  0
VERTEX
  8
Unknown_Line_Type
  70
32
  10
1810717.61
  20
3199129.22
  30
2154
  0
VERTEX
  8
Unknown_Line_Type
  70
32
  10
1810718.53
  20
3199129.11
  30
2154
  0
VERTEX
  8
Unknown_Line_Type
  70
32
  10
1810719.47
  20
3199129.15
  30
2154
  0
VERTEX
  8
Unknown_Line_Type
  70
32
  10
1810720.55
  20
3199129.37
  30
2154
  0
VERTEX
  8
Unknown_Line_Type
  70
32
  10
1810721.58
  20
3199129.77
  30
2154
  0
VERTEX
  8
Unknown_Line_Type
  70
32
  10
1810722.54
  20
3199130.33
  30
2154
  0
VERTEX
  8
Unknown_Line_Type
  70
32
  10
1810723.39
  20
3199131.03
  30
2154
  0
VERTEX
  8
Unknown_Line_Type
  70
32
  10
1810724.18
  20
3199131.95
  30
2154
  0
VERTEX
  8
Unknown_Line_Type
  70
32
  10
1810725.66
  20
3199134.00
  30
2154
  0
VERTEX
  8
Unknown_Line_Type
  70
32
  10
1810726.58
  20
3199135.05
  30
2154
  0
VERTEX
  8
Unknown_Line_Type
  70
32
  10
1810727.66
  20
3199135.98
  30
2154
  0
VERTEX
  8
Unknown_Line_Type
  70
32
  10
1810728.88
  20
3199136.74
  30
2154
  0
VERTEX
  8
Unknown_Line_Type
  70
32
  10
1810730.17
  20
3199137.27
  30
2154
  0
VERTEX
  8
Unknown_Line_Type
  70
32
  10
1810731.57
  20
3199137.62
  30
2154
  0
VERTEX
  8
Unknown_Line_Type
  70
32
  10
1810733.05
  20
3199137.86
  30
2154
  0
VERTEX
  8
Unknown_Line_Type
  70
32
  10
1810734.59
  20
3199138.01
  30
2154
  0
VERTEX
  8
Unknown_Line_Type
  70
32
  10
1810739.03
  20
3199138.22
  30
2154
  0
VERTEX
  8
Unknown_Line_Type
  70
32
  10
1810740.47
  20
3199138.32
  30
2154
  0
VERTEX
  8
Unknown_Line_Type
  70
32
  10
1810741.90
  20
3199138.48
  30
2154
  0
VERTEX
  8
Unknown_Line_Type
  70
32
  10
1810743.22
  20
3199138.72
  30
2154
  0
VERTEX
  8
Unknown_Line_Type
  70
32
  10
1810744.52
  20
3199139.04
  30
2154
  0
VERTEX
  8
Unknown_Line_Type
  70
32
  10
1810745.79
  20
3199139.46
  30
2154
  0
VERTEX
  8
Unknown_Line_Type
  70
32
  10
1810747.30
  20
3199140.07
  30
2154
  0
VERTEX
  8
Unknown_Line_Type
  70
32
  10
1810748.78
  20
3199140.78
  30
2154
  0
VERTEX
  8
Unknown_Line_Type
  70
32
  10
1810752.86
  20
3199142.90
  30
2154
  0
VERTEX
  8
Unknown_Line_Type
  70
32
  10
1810754.18
  20
3199143.48
  30
2154
  0
VERTEX
  8
Unknown_Line_Type
  70
32
  10
1810755.54
  20
3199143.93
  30
2154
  0
VERTEX
  8
Unknown_Line_Type
  70
32
  10
1810756.00
  20
3199144.02
  30
2154
  0
SEQEND
  8
Unknown_Line_Type
  0
POLYLINE
  8
Unknown_Line_Type
  70
8
  66
1
 62
0
 39
0
  0
VERTEX
  8
Unknown_Line_Type
  70
32
  10
1810756.00
  20
3199114.77
  30
2156
  0
VERTEX
  8
Unknown_Line_Type
  70
32
  10
1810755.94
  20
3199114.77
  30
2156
  0
VERTEX
  8
Unknown_Line_Type
  70
32
  10
1810754.44
  20
3199114.60
  30
2156
  0
VERTEX
  8
Unknown_Line_Type
  70
32
  10
1810752.95
  20
3199114.37
  30
2156
  0
VERTEX
  8
Unknown_Line_Type
  70
32
  10
1810751.47
  20
3199114.06
  30
2156
  0
VERTEX
  8
Unknown_Line_Type
  70
32
  10
1810749.66
  20
3199113.59
  30
2156
  0
VERTEX
  8
Unknown_Line_Type
  70
32
  10
1810747.87
  20
3199113.05
  30
2156
  0
VERTEX
  8
Unknown_Line_Type
  70
32
  10
1810746.08
  20
3199112.44
  30
2156
  0
VERTEX
  8
Unknown_Line_Type
  70
32
  10
1810744.32
  20
3199111.77
  30
2156
  0
VERTEX
  8
Unknown_Line_Type
  70
32
  10
1810739.75
  20
3199109.79
  30
2156
  0
VERTEX
  8
Unknown_Line_Type
  70
32
  10
1810738.25
  20
3199109.18
  30
2156
  0
VERTEX
  8
Unknown_Line_Type
  70
32
  10
1810736.76
  20
3199108.66
  30
2156
  0
VERTEX
  8
Unknown_Line_Type
  70
32
  10
1810735.27
  20
3199108.24
  30
2156
  0
VERTEX
  8
Unknown_Line_Type
  70
32
  10
1810733.79
  20
3199107.96
  30
2156
  0
VERTEX
  8
Unknown_Line_Type
  70
32
  10
1810732.33
  20
3199107.83
  30
2156
  0
VERTEX
  8
Unknown_Line_Type
  70
32
  10
1810730.89
  20
3199107.91
  30
2156
  0
VERTEX
  8
Unknown_Line_Type
  70
32
  10
1810729.35
  20
3199108.25
  30
2156
  0
VERTEX
  8
Unknown_Line_Type
  70
32
  10
1810727.82
  20
3199108.78
  30
2156
  0
VERTEX
  8
Unknown_Line_Type
  70
32
  10
1810724.78
  20
3199109.99
  30
2156
  0
VERTEX
  8
Unknown_Line_Type
  70
32
  10
1810723.30
  20
3199110.47
  30
2156
  0
VERTEX
  8
Unknown_Line_Type
  70
32
  10
1810721.80
  20
3199110.80
  30
2156
  0
VERTEX
  8
Unknown_Line_Type
  70
32
  10
1810720.29
  20
3199110.93
  30
2156
  0
VERTEX
  8
Unknown_Line_Type
  70
32
  10
1810719.24
  20
3199110.88
  30
2156
  0
VERTEX
  8
Unknown_Line_Type
  70
32
  10
1810718.20
  20
3199110.69
  30
2156
  0
VERTEX
  8
Unknown_Line_Type
  70
32
  10
1810717.14
  20
3199110.34
  30
2156
  0
VERTEX
  8
Unknown_Line_Type
  70
32
  10
1810716.11
  20
3199109.87
  30
2156
  0
VERTEX
  8
Unknown_Line_Type
  70
32
  10
1810715.10
  20
3199109.31
  30
2156
  0
VERTEX
  8
Unknown_Line_Type
  70
32
  10
1810714.04
  20
3199108.65
  30
2156
  0
VERTEX
  8
Unknown_Line_Type
  70
32
  10
1810709.57
  20
3199105.63
  30
2156
  0
VERTEX
  8
Unknown_Line_Type
  70
32
  10
1810708.17
  20
3199104.77
  30
2156
  0
VERTEX
  8
Unknown_Line_Type
  70
32
  10
1810706.95
  20
3199104.12
  30
2156
  0
VERTEX
  8
Unknown_Line_Type
  70
32
  10
1810705.68
  20
3199103.55
  30
2156
  0
VERTEX
  8
Unknown_Line_Type
  70
32
  10
1810704.38
  20
3199103.07
  30
2156
  0
VERTEX
  8
Unknown_Line_Type
  70
32
  10
1810703.06
  20
3199102.69
  30
2156
  0
VERTEX
  8
Unknown_Line_Type
  70
32
  10
1810701.85
  20
3199102.45
  30
2156
  0
VERTEX
  8
Unknown_Line_Type
  70
32
  10
1810696.79
  20
3199101.76
  30
2156
  0
VERTEX
  8
Unknown_Line_Type
  70
32
  10
1810695.49
  20
3199101.54
  30
2156
  0
VERTEX
  8
Unknown_Line_Type
  70
32
  10
1810692.14
  20
3199100.79
  30
2156
  0
VERTEX
  8
Unknown_Line_Type
  70
32
  10
1810690.45
  20
3199100.47
  30
2156
  0
VERTEX
  8
Unknown_Line_Type
  70
32
  10
1810688.85
  20
3199100.30
  30
2156
  0
VERTEX
  8
Unknown_Line_Type
  70
32
  10
1810687.22
  20
3199100.24
  30
2156
  0
VERTEX
  8
Unknown_Line_Type
  70
32
  10
1810685.57
  20
3199100.24
  30
2156
  0
VERTEX
  8
Unknown_Line_Type
  70
32
  10
1810683.90
  20
3199100.31
  30
2156
  0
VERTEX
  8
Unknown_Line_Type
  70
32
  10
1810678.74
  20
3199100.67
  30
2156
  0
VERTEX
  8
Unknown_Line_Type
  70
32
  10
1810675.16
  20
3199101.02
  30
2156
  0
VERTEX
  8
Unknown_Line_Type
  70
32
  10
1810673.39
  20
3199101.26
  30
2156
  0
VERTEX
  8
Unknown_Line_Type
  70
32
  10
1810669.80
  20
3199101.85
  30
2156
  0
VERTEX
  8
Unknown_Line_Type
  70
32
  10
1810668.04
  20
3199102.10
  30
2156
  0
VERTEX
  8
Unknown_Line_Type
  70
32
  10
1810666.34
  20
3199102.24
  30
2156
  0
VERTEX
  8
Unknown_Line_Type
  70
32
  10
1810664.68
  20
3199102.25
  30
2156
  0
VERTEX
  8
Unknown_Line_Type
  70
32
  10
1810663.07
  20
3199102.09
  30
2156
  0
VERTEX
  8
Unknown_Line_Type
  70
32
  10
1810661.53
  20
3199101.72
  30
2156
  0
VERTEX
  8
Unknown_Line_Type
  70
32
  10
1810660.28
  20
3199101.19
  30
2156
  0
VERTEX
  8
Unknown_Line_Type
  70
32
  10
1810659.10
  20
3199100.51
  30
2156
  0
VERTEX
  8
Unknown_Line_Type
  70
32
  10
1810657.97
  20
3199099.70
  30
2156
  0
VERTEX
  8
Unknown_Line_Type
  70
32
  10
1810656.90
  20
3199098.80
  30
2156
  0
VERTEX
  8
Unknown_Line_Type
  70
32
  10
1810653.77
  20
3199095.83
  30
2156
  0
VERTEX
  8
Unknown_Line_Type
  70
32
  10
1810652.66
  20
3199094.89
  30
2156
  0
VERTEX
  8
Unknown_Line_Type
  70
32
  10
1810651.49
  20
3199094.11
  30
2156
  0
VERTEX
  8
Unknown_Line_Type
  70
32
  10
1810650.12
  20
3199093.51
  30
2156
  0
VERTEX
  8
Unknown_Line_Type
  70
32
  10
1810648.69
  20
3199093.11
  30
2156
  0
VERTEX
  8
Unknown_Line_Type
  70
32
  10
1810647.24
  20
3199092.89
  30
2156
  0
VERTEX
  8
Unknown_Line_Type
  70
32
  10
1810645.81
  20
3199092.81
  30
2156
  0
VERTEX
  8
Unknown_Line_Type
  70
32
  10
1810644.74
  20
3199092.84
  30
2156
  0
VERTEX
  8
Unknown_Line_Type
  70
32
  10
1810643.72
  20
3199093.00
  30
2156
  0
VERTEX
  8
Unknown_Line_Type
  70
32
  10
1810642.79
  20
3199093.32
  30
2156
  0
VERTEX
  8
Unknown_Line_Type
  70
32
  10
1810641.85
  20
3199093.92
  30
2156
  0
VERTEX
  8
Unknown_Line_Type
  70
32
  10
1810641.02
  20
3199094.73
  30
2156
  0
VERTEX
  8
Unknown_Line_Type
  70
32
  10
1810640.26
  20
3199095.68
  30
2156
  0
VERTEX
  8
Unknown_Line_Type
  70
32
  10
1810639.57
  20
3199096.70
  30
2156
  0
VERTEX
  8
Unknown_Line_Type
  70
32
  10
1810638.38
  20
3199098.67
  30
2156
  0
VERTEX
  8
Unknown_Line_Type
  70
32
  10
1810637.87
  20
3199099.44
  30
2156
  0
VERTEX
  8
Unknown_Line_Type
  70
32
  10
1810637.31
  20
3199100.13
  30
2156
  0
VERTEX
  8
Unknown_Line_Type
  70
32
  10
1810636.67
  20
3199100.69
  30
2156
  0
VERTEX
  8
Unknown_Line_Type
  70
32
  10
1810635.96
  20
3199101.13
  30
2156
  0
VERTEX
  8
Unknown_Line_Type
  70
32
  10
1810635.21
  20
3199101.46
  30
2156
  0
VERTEX
  8
Unknown_Line_Type
  70
32
  10
1810634.43
  20
3199101.66
  30
2156
  0
VERTEX
  8
Unknown_Line_Type
  70
32
  10
1810633.34
  20
3199101.66
  30
2156
  0
VERTEX
  8
Unknown_Line_Type
  70
32
  10
1810632.39
  20
3199101.35
  30
2156
  0
VERTEX
  8
Unknown_Line_Type
  70
32
  10
1810631.44
  20
3199100.84
  30
2156
  0
VERTEX
  8
Unknown_Line_Type
  70
32
  10
1810629.49
  20
3199099.56
  30
2156
  0
VERTEX
  8
Unknown_Line_Type
  70
32
  10
1810628.46
  20
3199098.96
  30
2156
  0
VERTEX
  8
Unknown_Line_Type
  70
32
  10
1810627.35
  20
3199098.47
  30
2156
  0
VERTEX
  8
Unknown_Line_Type
  70
32
  10
1810625.84
  20
3199098.08
  30
2156
  0
VERTEX
  8
Unknown_Line_Type
  70
32
  10
1810624.23
  20
3199097.94
  30
2156
  0
VERTEX
  8
Unknown_Line_Type
  70
32
  10
1810622.71
  20
3199097.98
  30
2156
  0
VERTEX
  8
Unknown_Line_Type
  70
32
  10
1810621.17
  20
3199098.16
  30
2156
  0
VERTEX
  8
Unknown_Line_Type
  70
32
  10
1810619.62
  20
3199098.47
  30
2156
  0
VERTEX
  8
Unknown_Line_Type
  70
32
  10
1810618.10
  20
3199098.91
  30
2156
  0
VERTEX
  8
Unknown_Line_Type
  70
32
  10
1810616.51
  20
3199099.56
  30
2156
  0
VERTEX
  8
Unknown_Line_Type
  70
32
  10
1810614.84
  20
3199100.46
  30
2156
  0
VERTEX
  8
Unknown_Line_Type
  70
32
  10
1810613.31
  20
3199101.48
  30
2156
  0
VERTEX
  8
Unknown_Line_Type
  70
32
  10
1810610.30
  20
3199103.76
  30
2156
  0
VERTEX
  8
Unknown_Line_Type
  70
32
  10
1810608.83
  20
3199104.82
  30
2156
  0
VERTEX
  8
Unknown_Line_Type
  70
32
  10
1810607.39
  20
3199105.71
  30
2156
  0
VERTEX
  8
Unknown_Line_Type
  70
32
  10
1810606.16
  20
3199106.33
  30
2156
  0
VERTEX
  8
Unknown_Line_Type
  70
32
  10
1810605.04
  20
3199106.75
  30
2156
  0
VERTEX
  8
Unknown_Line_Type
  70
32
  10
1810604.09
  20
3199107.00
  30
2156
  0
VERTEX
  8
Unknown_Line_Type
  70
32
  10
1810603.44
  20
3199107.07
  30
2156
  0
VERTEX
  8
Unknown_Line_Type
  70
32
  10
1810603.00
  20
3199107.03
  30
2156
  0
VERTEX
  8
Unknown_Line_Type
  70
32
  10
1810602.80
  20
3199106.87
  30
2156
  0
SEQEND
  8
Unknown_Line_Type
  0
POLYLINE
  8
Unknown_Line_Type
  70
8
  66
1
 62
0
 39
0
  0
VERTEX
  8
Unknown_Line_Type
  70
32
  10
1810756.00
  20
3199089.80
  30
2158
  0
VERTEX
  8
Unknown_Line_Type
  70
32
  10
1810755.91
  20
3199089.79
  30
2158
  0
VERTEX
  8
Unknown_Line_Type
  70
32
  10
1810754.19
  20
3199089.82
  30
2158
  0
VERTEX
  8
Unknown_Line_Type
  70
32
  10
1810752.84
  20
3199089.87
  30
2158
  0
VERTEX
  8
Unknown_Line_Type
  70
32
  10
1810751.51
  20
3199089.96
  30
2158
  0
VERTEX
  8
Unknown_Line_Type
  70
32
  10
1810748.10
  20
3199090.40
  30
2158
  0
VERTEX
  8
Unknown_Line_Type
  70
32
  10
1810746.52
  20
3199090.53
  30
2158
  0
VERTEX
  8
Unknown_Line_Type
  70
32
  10
1810744.92
  20
3199090.58
  30
2158
  0
VERTEX
  8
Unknown_Line_Type
  70
32
  10
1810743.31
  20
3199090.55
  30
2158
  0
VERTEX
  8
Unknown_Line_Type
  70
32
  10
1810741.70
  20
3199090.44
  30
2158
  0
VERTEX
  8
Unknown_Line_Type
  70
32
  10
1810736.79
  20
3199089.84
  30
2158
  0
VERTEX
  8
Unknown_Line_Type
  70
32
  10
1810735.17
  20
3199089.70
  30
2158
  0
VERTEX
  8
Unknown_Line_Type
  70
32
  10
1810730.18
  20
3199089.61
  30
2158
  0
VERTEX
  8
Unknown_Line_Type
  70
32
  10
1810728.42
  20
3199089.43
  30
2158
  0
VERTEX
  8
Unknown_Line_Type
  70
32
  10
1810726.67
  20
3199089.13
  30
2158
  0
VERTEX
  8
Unknown_Line_Type
  70
32
  10
1810724.93
  20
3199088.70
  30
2158
  0
VERTEX
  8
Unknown_Line_Type
  70
32
  10
1810723.75
  20
3199088.33
  30
2158
  0
VERTEX
  8
Unknown_Line_Type
  70
32
  10
1810722.59
  20
3199087.91
  30
2158
  0
VERTEX
  8
Unknown_Line_Type
  70
32
  10
1810721.06
  20
3199087.26
  30
2158
  0
VERTEX
  8
Unknown_Line_Type
  70
32
  10
1810718.06
  20
3199085.86
  30
2158
  0
VERTEX
  8
Unknown_Line_Type
  70
32
  10
1810716.76
  20
3199085.28
  30
2158
  0
VERTEX
  8
Unknown_Line_Type
  70
32
  10
1810715.47
  20
3199084.76
  30
2158
  0
VERTEX
  8
Unknown_Line_Type
  70
32
  10
1810713.15
  20
3199083.91
  30
2158
  0
VERTEX
  8
Unknown_Line_Type
  70
32
  10
1810712.02
  20
3199083.45
  30
2158
  0
VERTEX
  8
Unknown_Line_Type
  70
32
  10
1810710.62
  20
3199082.77
  30
2158
  0
VERTEX
  8
Unknown_Line_Type
  70
32
  10
1810707.88
  20
3199081.22
  30
2158
  0
VERTEX
  8
Unknown_Line_Type
  70
32
  10
1810706.50
  20
3199080.49
  30
2158
  0
VERTEX
  8
Unknown_Line_Type
  70
32
  10
1810705.09
  20
3199079.88
  30
2158
  0
VERTEX
  8
Unknown_Line_Type
  70
32
  10
1810703.87
  20
3199079.49
  30
2158
  0
VERTEX
  8
Unknown_Line_Type
  70
32
  10
1810702.63
  20
3199079.23
  30
2158
  0
VERTEX
  8
Unknown_Line_Type
  70
32
  10
1810701.69
  20
3199079.11
  30
2158
  0
VERTEX
  8
Unknown_Line_Type
  70
32
  10
1810700.74
  20
3199079.08
  30
2158
  0
VERTEX
  8
Unknown_Line_Type
  70
32
  10
1810699.69
  20
3199079.15
  30
2158
  0
VERTEX
  8
Unknown_Line_Type
  70
32
  10
1810698.01
  20
3199079.46
  30
2158
  0
VERTEX
  8
Unknown_Line_Type
  70
32
  10
1810696.31
  20
3199079.94
  30
2158
  0
VERTEX
  8
Unknown_Line_Type
  70
32
  10
1810694.59
  20
3199080.52
  30
2158
  0
VERTEX
  8
Unknown_Line_Type
  70
32
  10
1810689.92
  20
3199082.32
  30
2158
  0
VERTEX
  8
Unknown_Line_Type
  70
32
  10
1810687.00
  20
3199083.55
  30
2158
  0
VERTEX
  8
Unknown_Line_Type
  70
32
  10
1810683.70
  20
3199085.03
  30
2158
  0
VERTEX
  8
Unknown_Line_Type
  70
32
  10
1810682.06
  20
3199085.69
  30
2158
  0
VERTEX
  8
Unknown_Line_Type
  70
32
  10
1810680.41
  20
3199086.19
  30
2158
  0
VERTEX
  8
Unknown_Line_Type
  70
32
  10
1810678.97
  20
3199086.46
  30
2158
  0
VERTEX
  8
Unknown_Line_Type
  70
32
  10
1810677.53
  20
3199086.58
  30
2158
  0
VERTEX
  8
Unknown_Line_Type
  70
32
  10
1810676.10
  20
3199086.56
  30
2158
  0
VERTEX
  8
Unknown_Line_Type
  70
32
  10
1810674.69
  20
3199086.40
  30
2158
  0
VERTEX
  8
Unknown_Line_Type
  70
32
  10
1810673.32
  20
3199086.08
  30
2158
  0
VERTEX
  8
Unknown_Line_Type
  70
32
  10
1810672.09
  20
3199085.64
  30
2158
  0
VERTEX
  8
Unknown_Line_Type
  70
32
  10
1810669.58
  20
3199084.57
  30
2158
  0
VERTEX
  8
Unknown_Line_Type
  70
32
  10
1810668.26
  20
3199084.03
  30
2158
  0
VERTEX
  8
Unknown_Line_Type
  70
32
  10
1810666.89
  20
3199083.57
  30
2158
  0
VERTEX
  8
Unknown_Line_Type
  70
32
  10
1810665.29
  20
3199083.19
  30
2158
  0
VERTEX
  8
Unknown_Line_Type
  70
32
  10
1810663.64
  20
3199082.92
  30
2158
  0
VERTEX
  8
Unknown_Line_Type
  70
32
  10
1810661.95
  20
3199082.74
  30
2158
  0
VERTEX
  8
Unknown_Line_Type
  70
32
  10
1810652.64
  20
3199082.12
  30
2158
  0
VERTEX
  8
Unknown_Line_Type
  70
32
  10
1810650.32
  20
3199081.90
  30
2158
  0
VERTEX
  8
Unknown_Line_Type
  70
32
  10
1810648.12
  20
3199081.64
  30
2158
  0
VERTEX
  8
Unknown_Line_Type
  70
32
  10
1810645.89
  20
3199081.33
  30
2158
  0
VERTEX
  8
Unknown_Line_Type
  70
32
  10
1810643.70
  20
3199080.96
  30
2158
  0
VERTEX
  8
Unknown_Line_Type
  70
32
  10
1810641.63
  20
3199080.53
  30
2158
  0
VERTEX
  8
Unknown_Line_Type
  70
32
  10
1810639.83
  20
3199080.08
  30
2158
  0
VERTEX
  8
Unknown_Line_Type
  70
32
  10
1810638.28
  20
3199079.62
  30
2158
  0
VERTEX
  8
Unknown_Line_Type
  70
32
  10
1810637.02
  20
3199079.18
  30
2158
  0
VERTEX
  8
Unknown_Line_Type
  70
32
  10
1810636.01
  20
3199078.76
  30
2158
  0
VERTEX
  8
Unknown_Line_Type
  70
32
  10
1810635.52
  20
3199078.49
  30
2158
  0
SEQEND
  8
Unknown_Line_Type
  0
POLYLINE
  8
Unknown_Line_Type
  70
8
  66
1
 62
0
 39
0
  0
VERTEX
  8
Unknown_Line_Type
  70
32
  10
1810647.03
  20
3199068.51
  30
2160
  0
VERTEX
  8
Unknown_Line_Type
  70
32
  10
1810649.86
  20
3199069.30
  30
2160
  0
VERTEX
  8
Unknown_Line_Type
  70
32
  10
1810651.71
  20
3199069.74
  30
2160
  0
VERTEX
  8
Unknown_Line_Type
  70
32
  10
1810653.84
  20
3199070.17
  30
2160
  0
VERTEX
  8
Unknown_Line_Type
  70
32
  10
1810655.90
  20
3199070.52
  30
2160
  0
VERTEX
  8
Unknown_Line_Type
  70
32
  10
1810658.04
  20
3199070.79
  30
2160
  0
VERTEX
  8
Unknown_Line_Type
  70
32
  10
1810660.18
  20
3199070.97
  30
2160
  0
VERTEX
  8
Unknown_Line_Type
  70
32
  10
1810662.27
  20
3199071.05
  30
2160
  0
VERTEX
  8
Unknown_Line_Type
  70
32
  10
1810664.21
  20
3199070.99
  30
2160
  0
VERTEX
  8
Unknown_Line_Type
  70
32
  10
1810666.15
  20
3199070.76
  30
2160
  0
VERTEX
  8
Unknown_Line_Type
  70
32
  10
1810667.83
  20
3199070.35
  30
2160
  0
VERTEX
  8
Unknown_Line_Type
  70
32
  10
1810669.43
  20
3199069.79
  30
2160
  0
VERTEX
  8
Unknown_Line_Type
  70
32
  10
1810670.92
  20
3199069.04
  30
2160
  0
VERTEX
  8
Unknown_Line_Type
  70
32
  10
1810672.34
  20
3199068.07
  30
2160
  0
VERTEX
  8
Unknown_Line_Type
  70
32
  10
1810675.59
  20
3199065.36
  30
2160
  0
VERTEX
  8
Unknown_Line_Type
  70
32
  10
1810676.59
  20
3199064.61
  30
2160
  0
VERTEX
  8
Unknown_Line_Type
  70
32
  10
1810677.52
  20
3199064.01
  30
2160
  0
VERTEX
  8
Unknown_Line_Type
  70
32
  10
1810678.49
  20
3199063.48
  30
2160
  0
VERTEX
  8
Unknown_Line_Type
  70
32
  10
1810679.77
  20
3199062.88
  30
2160
  0
VERTEX
  8
Unknown_Line_Type
  70
32
  10
1810681.09
  20
3199062.34
  30
2160
  0
VERTEX
  8
Unknown_Line_Type
  70
32
  10
1810682.66
  20
3199061.78
  30
2160
  0
VERTEX
  8
Unknown_Line_Type
  70
32
  10
1810684.26
  20
3199061.32
  30
2160
  0
VERTEX
  8
Unknown_Line_Type
  70
32
  10
1810685.87
  20
3199061.00
  30
2160
  0
VERTEX
  8
Unknown_Line_Type
  70
32
  10
1810687.55
  20
3199060.86
  30
2160
  0
VERTEX
  8
Unknown_Line_Type
  70
32
  10
1810689.22
  20
3199060.91
  30
2160
  0
VERTEX
  8
Unknown_Line_Type
  70
32
  10
1810690.85
  20
3199061.12
  30
2160
  0
VERTEX
  8
Unknown_Line_Type
  70
32
  10
1810692.41
  20
3199061.48
  30
2160
  0
VERTEX
  8
Unknown_Line_Type
  70
32
  10
1810693.79
  20
3199061.98
  30
2160
  0
VERTEX
  8
Unknown_Line_Type
  70
32
  10
1810695.05
  20
3199062.63
  30
2160
  0
VERTEX
  8
Unknown_Line_Type
  70
32
  10
1810696.13
  20
3199063.46
  30
2160
  0
VERTEX
  8
Unknown_Line_Type
  70
32
  10
1810696.93
  20
3199064.38
  30
2160
  0
VERTEX
  8
Unknown_Line_Type
  70
32
  10
1810697.63
  20
3199065.42
  30
2160
  0
VERTEX
  8
Unknown_Line_Type
  70
32
  10
1810698.97
  20
3199067.59
  30
2160
  0
VERTEX
  8
Unknown_Line_Type
  70
32
  10
1810699.58
  20
3199068.43
  30
2160
  0
VERTEX
  8
Unknown_Line_Type
  70
32
  10
1810700.26
  20
3199069.20
  30
2160
  0
VERTEX
  8
Unknown_Line_Type
  70
32
  10
1810700.59
  20
3199069.52
  30
2160
  0
VERTEX
  8
Unknown_Line_Type
  70
32
  10
1810701.41
  20
3199070.18
  30
2160
  0
VERTEX
  8
Unknown_Line_Type
  70
32
  10
1810702.51
  20
3199070.84
  30
2160
  0
VERTEX
  8
Unknown_Line_Type
  70
32
  10
1810703.70
  20
3199071.39
  30
2160
  0
VERTEX
  8
Unknown_Line_Type
  70
32
  10
1810705.17
  20
3199071.91
  30
2160
  0
VERTEX
  8
Unknown_Line_Type
  70
32
  10
1810706.72
  20
3199072.34
  30
2160
  0
VERTEX
  8
Unknown_Line_Type
  70
32
  10
1810708.31
  20
3199072.71
  30
2160
  0
VERTEX
  8
Unknown_Line_Type
  70
32
  10
1810713.19
  20
3199073.69
  30
2160
  0
VERTEX
  8
Unknown_Line_Type
  70
32
  10
1810717.30
  20
3199074.58
  30
2160
  0
VERTEX
  8
Unknown_Line_Type
  70
32
  10
1810718.26
  20
3199074.74
  30
2160
  0
VERTEX
  8
Unknown_Line_Type
  70
32
  10
1810719.21
  20
3199074.85
  30
2160
  0
VERTEX
  8
Unknown_Line_Type
  70
32
  10
1810720.51
  20
3199074.90
  30
2160
  0
VERTEX
  8
Unknown_Line_Type
  70
32
  10
1810721.79
  20
3199074.82
  30
2160
  0
VERTEX
  8
Unknown_Line_Type
  70
32
  10
1810723.04
  20
3199074.60
  30
2160
  0
VERTEX
  8
Unknown_Line_Type
  70
32
  10
1810724.47
  20
3199074.17
  30
2160
  0
VERTEX
  8
Unknown_Line_Type
  70
32
  10
1810727.29
  20
3199073.13
  30
2160
  0
VERTEX
  8
Unknown_Line_Type
  70
32
  10
1810728.71
  20
3199072.75
  30
2160
  0
VERTEX
  8
Unknown_Line_Type
  70
32
  10
1810730.15
  20
3199072.49
  30
2160
  0
VERTEX
  8
Unknown_Line_Type
  70
32
  10
1810731.59
  20
3199072.39
  30
2160
  0
VERTEX
  8
Unknown_Line_Type
  70
32
  10
1810733.01
  20
3199072.45
  30
2160
  0
VERTEX
  8
Unknown_Line_Type
  70
32
  10
1810734.37
  20
3199072.73
  30
2160
  0
VERTEX
  8
Unknown_Line_Type
  70
32
  10
1810735.81
  20
3199073.30
  30
2160
  0
VERTEX
  8
Unknown_Line_Type
  70
32
  10
1810737.20
  20
3199074.06
  30
2160
  0
VERTEX
  8
Unknown_Line_Type
  70
32
  10
1810738.59
  20
3199074.87
  30
2160
  0
VERTEX
  8
Unknown_Line_Type
  70
32
  10
1810740.03
  20
3199075.63
  30
2160
  0
VERTEX
  8
Unknown_Line_Type
  70
32
  10
1810741.21
  20
3199076.11
  30
2160
  0
VERTEX
  8
Unknown_Line_Type
  70
32
  10
1810742.44
  20
3199076.46
  30
2160
  0
VERTEX
  8
Unknown_Line_Type
  70
32
  10
1810743.70
  20
3199076.66
  30
2160
  0
VERTEX
  8
Unknown_Line_Type
  70
32
  10
1810744.80
  20
3199076.70
  30
2160
  0
VERTEX
  8
Unknown_Line_Type
  70
32
  10
1810745.91
  20
3199076.64
  30
2160
  0
VERTEX
  8
Unknown_Line_Type
  70
32
  10
1810747.23
  20
3199076.50
  30
2160
  0
VERTEX
  8
Unknown_Line_Type
  70
32
  10
1810748.57
  20
3199076.30
  30
2160
  0
VERTEX
  8
Unknown_Line_Type
  70
32
  10
1810752.79
  20
3199075.55
  30
2160
  0
VERTEX
  8
Unknown_Line_Type
  70
32
  10
1810754.28
  20
3199075.26
  30
2160
  0
VERTEX
  8
Unknown_Line_Type
  70
32
  10
1810756.00
  20
3199074.86
  30
2160
  0
SEQEND
  8
Unknown_Line_Type
  0
POLYLINE
  8
Unknown_Line_Type
  70
8
  66
1
 62
0
 39
0
  0
VERTEX
  8
Unknown_Line_Type
  70
32
  10
1810669.87
  20
3199048.69
  30
2162
  0
VERTEX
  8
Unknown_Line_Type
  70
32
  10
1810670.11
  20
3199048.84
  30
2162
  0
VERTEX
  8
Unknown_Line_Type
  70
32
  10
1810670.78
  20
3199048.93
  30
2162
  0
VERTEX
  8
Unknown_Line_Type
  70
32
  10
1810671.83
  20
3199048.94
  30
2162
  0
VERTEX
  8
Unknown_Line_Type
  70
32
  10
1810673.13
  20
3199048.84
  30
2162
  0
VERTEX
  8
Unknown_Line_Type
  70
32
  10
1810678.63
  20
3199048.14
  30
2162
  0
VERTEX
  8
Unknown_Line_Type
  70
32
  10
1810680.94
  20
3199047.92
  30
2162
  0
VERTEX
  8
Unknown_Line_Type
  70
32
  10
1810683.27
  20
3199047.78
  30
2162
  0
VERTEX
  8
Unknown_Line_Type
  70
32
  10
1810685.53
  20
3199047.74
  30
2162
  0
VERTEX
  8
Unknown_Line_Type
  70
32
  10
1810686.94
  20
3199047.78
  30
2162
  0
VERTEX
  8
Unknown_Line_Type
  70
32
  10
1810688.25
  20
3199047.86
  30
2162
  0
VERTEX
  8
Unknown_Line_Type
  70
32
  10
1810689.81
  20
3199048.02
  30
2162
  0
VERTEX
  8
Unknown_Line_Type
  70
32
  10
1810691.35
  20
3199048.22
  30
2162
  0
VERTEX
  8
Unknown_Line_Type
  70
32
  10
1810694.76
  20
3199048.74
  30
2162
  0
VERTEX
  8
Unknown_Line_Type
  70
32
  10
1810700.32
  20
3199049.74
  30
2162
  0
VERTEX
  8
Unknown_Line_Type
  70
32
  10
1810709.09
  20
3199051.47
  30
2162
  0
VERTEX
  8
Unknown_Line_Type
  70
32
  10
1810710.84
  20
3199051.75
  30
2162
  0
VERTEX
  8
Unknown_Line_Type
  70
32
  10
1810712.56
  20
3199051.94
  30
2162
  0
VERTEX
  8
Unknown_Line_Type
  70
32
  10
1810714.25
  20
3199051.98
  30
2162
  0
VERTEX
  8
Unknown_Line_Type
  70
32
  10
1810715.33
  20
3199051.91
  30
2162
  0
VERTEX
  8
Unknown_Line_Type
  70
32
  10
1810719.36
  20
3199051.44
  30
2162
  0
VERTEX
  8
Unknown_Line_Type
  70
32
  10
1810720.75
  20
3199051.35
  30
2162
  0
VERTEX
  8
Unknown_Line_Type
  70
32
  10
1810722.09
  20
3199051.38
  30
2162
  0
VERTEX
  8
Unknown_Line_Type
  70
32
  10
1810723.38
  20
3199051.58
  30
2162
  0
VERTEX
  8
Unknown_Line_Type
  70
32
  10
1810724.38
  20
3199051.89
  30
2162
  0
VERTEX
  8
Unknown_Line_Type
  70
32
  10
1810727.78
  20
3199053.33
  30
2162
  0
VERTEX
  8
Unknown_Line_Type
  70
32
  10
1810729.26
  20
3199053.90
  30
2162
  0
VERTEX
  8
Unknown_Line_Type
  70
32
  10
1810731.65
  20
3199054.77
  30
2162
  0
VERTEX
  8
Unknown_Line_Type
  70
32
  10
1810732.57
  20
3199055.07
  30
2162
  0
VERTEX
  8
Unknown_Line_Type
  70
32
  10
1810733.83
  20
3199055.37
  30
2162
  0
VERTEX
  8
Unknown_Line_Type
  70
32
  10
1810735.13
  20
3199055.60
  30
2162
  0
VERTEX
  8
Unknown_Line_Type
  70
32
  10
1810737.78
  20
3199055.97
  30
2162
  0
VERTEX
  8
Unknown_Line_Type
  70
32
  10
1810739.82
  20
3199056.32
  30
2162
  0
VERTEX
  8
Unknown_Line_Type
  70
32
  10
1810741.06
  20
3199056.61
  30
2162
  0
VERTEX
  8
Unknown_Line_Type
  70
32
  10
1810742.26
  20
3199056.98
  30
2162
  0
VERTEX
  8
Unknown_Line_Type
  70
32
  10
1810743.41
  20
3199057.45
  30
2162
  0
VERTEX
  8
Unknown_Line_Type
  70
32
  10
1810744.87
  20
3199058.27
  30
2162
  0
VERTEX
  8
Unknown_Line_Type
  70
32
  10
1810747.63
  20
3199060.16
  30
2162
  0
VERTEX
  8
Unknown_Line_Type
  70
32
  10
1810748.86
  20
3199060.94
  30
2162
  0
VERTEX
  8
Unknown_Line_Type
  70
32
  10
1810750.14
  20
3199061.61
  30
2162
  0
VERTEX
  8
Unknown_Line_Type
  70
32
  10
1810751.46
  20
3199062.10
  30
2162
  0
VERTEX
  8
Unknown_Line_Type
  70
32
  10
1810752.45
  20
3199062.33
  30
2162
  0
VERTEX
  8
Unknown_Line_Type
  70
32
  10
1810754.01
  20
3199062.54
  30
2162
  0
VERTEX
  8
Unknown_Line_Type
  70
32
  10
1810755.66
  20
3199062.66
  30
2162
  0
VERTEX
  8
Unknown_Line_Type
  70
32
  10
1810756.00
  20
3199062.67
  30
2162
  0
SEQEND
  8
Unknown_Line_Type
  0
POLYLINE
  8
Unknown_Line_Type
  70
8
  66
1
 62
0
 39
0
  0
VERTEX
  8
Unknown_Line_Type
  70
32
  10
1810756.00
  20
3199041.39
  30
2164
  0
VERTEX
  8
Unknown_Line_Type
  70
32
  10
1810755.35
  20
3199041.10
  30
2164
  0
VERTEX
  8
Unknown_Line_Type
  70
32
  10
1810753.99
  20
3199040.63
  30
2164
  0
VERTEX
  8
Unknown_Line_Type
  70
32
  10
1810752.58
  20
3199040.25
  30
2164
  0
VERTEX
  8
Unknown_Line_Type
  70
32
  10
1810751.13
  20
3199039.96
  30
2164
  0
VERTEX
  8
Unknown_Line_Type
  70
32
  10
1810749.65
  20
3199039.74
  30
2164
  0
VERTEX
  8
Unknown_Line_Type
  70
32
  10
1810748.21
  20
3199039.59
  30
2164
  0
VERTEX
  8
Unknown_Line_Type
  70
32
  10
1810743.89
  20
3199039.25
  30
2164
  0
VERTEX
  8
Unknown_Line_Type
  70
32
  10
1810740.54
  20
3199038.93
  30
2164
  0
VERTEX
  8
Unknown_Line_Type
  70
32
  10
1810737.69
  20
3199038.71
  30
2164
  0
VERTEX
  8
Unknown_Line_Type
  70
32
  10
1810736.31
  20
3199038.57
  30
2164
  0
VERTEX
  8
Unknown_Line_Type
  70
32
  10
1810734.98
  20
3199038.35
  30
2164
  0
VERTEX
  8
Unknown_Line_Type
  70
32
  10
1810731.97
  20
3199037.61
  30
2164
  0
VERTEX
  8
Unknown_Line_Type
  70
32
  10
1810730.38
  20
3199037.32
  30
2164
  0
VERTEX
  8
Unknown_Line_Type
  70
32
  10
1810728.72
  20
3199037.13
  30
2164
  0
VERTEX
  8
Unknown_Line_Type
  70
32
  10
1810727.01
  20
3199037.01
  30
2164
  0
VERTEX
  8
Unknown_Line_Type
  70
32
  10
1810725.26
  20
3199036.96
  30
2164
  0
VERTEX
  8
Unknown_Line_Type
  70
32
  10
1810723.48
  20
3199036.97
  30
2164
  0
VERTEX
  8
Unknown_Line_Type
  70
32
  10
1810717.04
  20
3199037.18
  30
2164
  0
VERTEX
  8
Unknown_Line_Type
  70
32
  10
1810711.94
  20
3199037.20
  30
2164
  0
VERTEX
  8
Unknown_Line_Type
  70
32
  10
1810710.15
  20
3199037.24
  30
2164
  0
VERTEX
  8
Unknown_Line_Type
  70
32
  10
1810708.87
  20
3199037.31
  30
2164
  0
VERTEX
  8
Unknown_Line_Type
  70
32
  10
1810706.20
  20
3199037.56
  30
2164
  0
VERTEX
  8
Unknown_Line_Type
  70
32
  10
1810703.42
  20
3199037.95
  30
2164
  0
VERTEX
  8
Unknown_Line_Type
  70
32
  10
1810697.86
  20
3199039.03
  30
2164
  0
VERTEX
  8
Unknown_Line_Type
  70
32
  10
1810695.68
  20
3199039.30
  30
2164
  0
VERTEX
  8
Unknown_Line_Type
  70
32
  10
1810693.34
  20
3199039.37
  30
2164
  0
VERTEX
  8
Unknown_Line_Type
  70
32
  10
1810691.00
  20
3199039.26
  30
2164
  0
VERTEX
  8
Unknown_Line_Type
  70
32
  10
1810688.76
  20
3199039.01
  30
2164
  0
VERTEX
  8
Unknown_Line_Type
  70
32
  10
1810686.74
  20
3199038.66
  30
2164
  0
VERTEX
  8
Unknown_Line_Type
  70
32
  10
1810685.02
  20
3199038.25
  30
2164
  0
VERTEX
  8
Unknown_Line_Type
  70
32
  10
1810683.74
  20
3199037.86
  30
2164
  0
VERTEX
  8
Unknown_Line_Type
  70
32
  10
1810683.08
  20
3199037.60
  30
2164
  0
VERTEX
  8
Unknown_Line_Type
  70
32
  10
1810682.85
  20
3199037.44
  30
2164
  0
SEQEND
  8
Unknown_Line_Type
  0
POLYLINE
  8
Unknown_Line_Type
  70
8
  66
1
 62
0
 39
0
  0
VERTEX
  8
Unknown_Line_Type
  70
32
  10
1810687.52
  20
3199033.39
  30
2166
  0
VERTEX
  8
Unknown_Line_Type
  70
32
  10
1810687.59
  20
3199033.46
  30
2166
  0
VERTEX
  8
Unknown_Line_Type
  70
32
  10
1810687.86
  20
3199033.52
  30
2166
  0
VERTEX
  8
Unknown_Line_Type
  70
32
  10
1810688.30
  20
3199033.54
  30
2166
  0
VERTEX
  8
Unknown_Line_Type
  70
32
  10
1810689.61
  20
3199033.46
  30
2166
  0
VERTEX
  8
Unknown_Line_Type
  70
32
  10
1810691.37
  20
3199033.23
  30
2166
  0
VERTEX
  8
Unknown_Line_Type
  70
32
  10
1810693.50
  20
3199032.89
  30
2166
  0
VERTEX
  8
Unknown_Line_Type
  70
32
  10
1810695.89
  20
3199032.47
  30
2166
  0
VERTEX
  8
Unknown_Line_Type
  70
32
  10
1810700.96
  20
3199031.49
  30
2166
  0
VERTEX
  8
Unknown_Line_Type
  70
32
  10
1810704.10
  20
3199030.84
  30
2166
  0
VERTEX
  8
Unknown_Line_Type
  70
32
  10
1810705.84
  20
3199030.44
  30
2166
  0
VERTEX
  8
Unknown_Line_Type
  70
32
  10
1810711.41
  20
3199029.05
  30
2166
  0
VERTEX
  8
Unknown_Line_Type
  70
32
  10
1810712.67
  20
3199028.80
  30
2166
  0
VERTEX
  8
Unknown_Line_Type
  70
32
  10
1810714.14
  20
3199028.58
  30
2166
  0
VERTEX
  8
Unknown_Line_Type
  70
32
  10
1810715.63
  20
3199028.46
  30
2166
  0
VERTEX
  8
Unknown_Line_Type
  70
32
  10
1810717.13
  20
3199028.42
  30
2166
  0
VERTEX
  8
Unknown_Line_Type
  70
32
  10
1810718.62
  20
3199028.46
  30
2166
  0
VERTEX
  8
Unknown_Line_Type
  70
32
  10
1810723.12
  20
3199028.76
  30
2166
  0
VERTEX
  8
Unknown_Line_Type
  70
32
  10
1810725.03
  20
3199028.84
  30
2166
  0
VERTEX
  8
Unknown_Line_Type
  70
32
  10
1810726.95
  20
3199028.88
  30
2166
  0
VERTEX
  8
Unknown_Line_Type
  70
32
  10
1810730.79
  20
3199028.83
  30
2166
  0
VERTEX
  8
Unknown_Line_Type
  70
32
  10
1810735.86
  20
3199028.64
  30
2166
  0
VERTEX
  8
Unknown_Line_Type
  70
32
  10
1810737.54
  20
3199028.63
  30
2166
  0
VERTEX
  8
Unknown_Line_Type
  70
32
  10
1810739.21
  20
3199028.69
  30
2166
  0
VERTEX
  8
Unknown_Line_Type
  70
32
  10
1810740.88
  20
3199028.83
  30
2166
  0
VERTEX
  8
Unknown_Line_Type
  70
32
  10
1810742.54
  20
3199029.03
  30
2166
  0
VERTEX
  8
Unknown_Line_Type
  70
32
  10
1810745.87
  20
3199029.48
  30
2166
  0
VERTEX
  8
Unknown_Line_Type
  70
32
  10
1810752.48
  20
3199030.49
  30
2166
  0
VERTEX
  8
Unknown_Line_Type
  70
32
  10
1810754.13
  20
3199030.77
  30
2166
  0
VERTEX
  8
Unknown_Line_Type
  70
32
  10
1810756.00
  20
3199031.13
  30
2166
  0
SEQEND
  8
Unknown_Line_Type
  0
POLYLINE
  8
Unknown_Line_Type
  70
8
  66
1
 62
0
 39
0
  0
VERTEX
  8
Unknown_Line_Type
  70
32
  10
1810695.51
  20
3199026.46
  30
2168
  0
VERTEX
  8
Unknown_Line_Type
  70
32
  10
1810695.80
  20
3199026.44
  30
2168
  0
VERTEX
  8
Unknown_Line_Type
  70
32
  10
1810696.55
  20
3199026.22
  30
2168
  0
VERTEX
  8
Unknown_Line_Type
  70
32
  10
1810698.39
  20
3199025.59
  30
2168
  0
VERTEX
  8
Unknown_Line_Type
  70
32
  10
1810699.84
  20
3199025.03
  30
2168
  0
VERTEX
  8
Unknown_Line_Type
  70
32
  10
1810705.10
  20
3199022.82
  30
2168
  0
VERTEX
  8
Unknown_Line_Type
  70
32
  10
1810707.35
  20
3199021.91
  30
2168
  0
VERTEX
  8
Unknown_Line_Type
  70
32
  10
1810709.53
  20
3199021.12
  30
2168
  0
VERTEX
  8
Unknown_Line_Type
  70
32
  10
1810711.62
  20
3199020.50
  30
2168
  0
VERTEX
  8
Unknown_Line_Type
  70
32
  10
1810713.45
  20
3199020.22
  30
2168
  0
VERTEX
  8
Unknown_Line_Type
  70
32
  10
1810715.17
  20
3199020.30
  30
2168
  0
VERTEX
  8
Unknown_Line_Type
  70
32
  10
1810716.93
  20
3199020.59
  30
2168
  0
VERTEX
  8
Unknown_Line_Type
  70
32
  10
1810721.96
  20
3199021.71
  30
2168
  0
VERTEX
  8
Unknown_Line_Type
  70
32
  10
1810723.62
  20
3199022.04
  30
2168
  0
VERTEX
  8
Unknown_Line_Type
  70
32
  10
1810725.30
  20
3199022.30
  30
2168
  0
VERTEX
  8
Unknown_Line_Type
  70
32
  10
1810726.99
  20
3199022.50
  30
2168
  0
VERTEX
  8
Unknown_Line_Type
  70
32
  10
1810728.70
  20
3199022.62
  30
2168
  0
VERTEX
  8
Unknown_Line_Type
  70
32
  10
1810730.41
  20
3199022.67
  30
2168
  0
VERTEX
  8
Unknown_Line_Type
  70
32
  10
1810732.13
  20
3199022.66
  30
2168
  0
VERTEX
  8
Unknown_Line_Type
  70
32
  10
1810733.86
  20
3199022.59
  30
2168
  0
VERTEX
  8
Unknown_Line_Type
  70
32
  10
1810740.77
  20
3199022.06
  30
2168
  0
VERTEX
  8
Unknown_Line_Type
  70
32
  10
1810743.40
  20
3199021.92
  30
2168
  0
VERTEX
  8
Unknown_Line_Type
  70
32
  10
1810746.56
  20
3199021.89
  30
2168
  0
VERTEX
  8
Unknown_Line_Type
  70
32
  10
1810750.22
  20
3199021.95
  30
2168
  0
VERTEX
  8
Unknown_Line_Type
  70
32
  10
1810752.03
  20
3199021.94
  30
2168
  0
VERTEX
  8
Unknown_Line_Type
  70
32
  10
1810753.91
  20
3199021.85
  30
2168
  0
VERTEX
  8
Unknown_Line_Type
  70
32
  10
1810755.76
  20
3199021.69
  30
2168
  0
VERTEX
  8
Unknown_Line_Type
  70
32
  10
1810756.00
  20
3199021.66
  30
2168
  0
SEQEND
  8
Unknown_Line_Type
  0
POLYLINE
  8
Unknown_Line_Type
  70
8
  66
1
 62
0
 39
0
  0
VERTEX
  8
Unknown_Line_Type
  70
32
  10
1810723.53
  20
3199002.15
  30
2170
  0
VERTEX
  8
Unknown_Line_Type
  70
32
  10
1810724.90
  20
3199003.17
  30
2170
  0
VERTEX
  8
Unknown_Line_Type
  70
32
  10
1810725.95
  20
3199003.89
  30
2170
  0
VERTEX
  8
Unknown_Line_Type
  70
32
  10
1810727.25
  20
3199004.58
  30
2170
  0
VERTEX
  8
Unknown_Line_Type
  70
32
  10
1810728.49
  20
3199004.99
  30
2170
  0
VERTEX
  8
Unknown_Line_Type
  70
32
  10
1810729.90
  20
3199005.26
  30
2170
  0
VERTEX
  8
Unknown_Line_Type
  70
32
  10
1810731.42
  20
3199005.40
  30
2170
  0
VERTEX
  8
Unknown_Line_Type
  70
32
  10
1810733.00
  20
3199005.45
  30
2170
  0
VERTEX
  8
Unknown_Line_Type
  70
32
  10
1810736.89
  20
3199005.46
  30
2170
  0
VERTEX
  8
Unknown_Line_Type
  70
32
  10
1810738.58
  20
3199005.59
  30
2170
  0
VERTEX
  8
Unknown_Line_Type
  70
32
  10
1810740.11
  20
3199005.92
  30
2170
  0
VERTEX
  8
Unknown_Line_Type
  70
32
  10
1810743.19
  20
3199006.90
  30
2170
  0
VERTEX
  8
Unknown_Line_Type
  70
32
  10
1810744.76
  20
3199007.37
  30
2170
  0
VERTEX
  8
Unknown_Line_Type
  70
32
  10
1810745.85
  20
3199007.61
  30
2170
  0
VERTEX
  8
Unknown_Line_Type
  70
32
  10
1810747.38
  20
3199007.84
  30
2170
  0
VERTEX
  8
Unknown_Line_Type
  70
32
  10
1810748.95
  20
3199007.96
  30
2170
  0
VERTEX
  8
Unknown_Line_Type
  70
32
  10
1810750.05
  20
3199008.01
  30
2170
  0
VERTEX
  8
Unknown_Line_Type
  70
32
  10
1810751.64
  20
3199008.07
  30
2170
  0
VERTEX
  8
Unknown_Line_Type
  70
32
  10
1810753.24
  20
3199008.09
  30
2170
  0
VERTEX
  8
Unknown_Line_Type
  70
32
  10
1810754.74
  20
3199008.04
  30
2170
  0
VERTEX
  8
Unknown_Line_Type
  70
32
  10
1810756.00
  20
3199007.97
  30
2170
  0
SEQEND
  8
Unknown_Line_Type
  0
POLYLINE
  8
Unknown_Line_Type
  70
8
  66
1
 62
0
 39
0
  0
VERTEX
  8
Unknown_Line_Type
  70
32
  10
1810756.00
  20
3198998.12
  30
2172
  0
VERTEX
  8
Unknown_Line_Type
  70
32
  10
1810755.42
  20
3198998.12
  30
2172
  0
VERTEX
  8
Unknown_Line_Type
  70
32
  10
1810754.03
  20
3198998.00
  30
2172
  0
VERTEX
  8
Unknown_Line_Type
  70
32
  10
1810752.62
  20
3198997.82
  30
2172
  0
VERTEX
  8
Unknown_Line_Type
  70
32
  10
1810751.05
  20
3198997.55
  30
2172
  0
VERTEX
  8
Unknown_Line_Type
  70
32
  10
1810749.35
  20
3198997.19
  30
2172
  0
VERTEX
  8
Unknown_Line_Type
  70
32
  10
1810747.56
  20
3198996.74
  30
2172
  0
VERTEX
  8
Unknown_Line_Type
  70
32
  10
1810745.74
  20
3198996.17
  30
2172
  0
VERTEX
  8
Unknown_Line_Type
  70
32
  10
1810743.84
  20
3198995.47
  30
2172
  0
VERTEX
  8
Unknown_Line_Type
  70
32
  10
1810742.02
  20
3198994.72
  30
2172
  0
VERTEX
  8
Unknown_Line_Type
  70
32
  10
1810737.47
  20
3198992.73
  30
2172
  0
VERTEX
  8
Unknown_Line_Type
  70
32
  10
1810736.37
  20
3198992.30
  30
2172
  0
VERTEX
  8
Unknown_Line_Type
  70
32
  10
1810735.32
  20
3198991.93
  30
2172
  0
SEQEND
  8
Unknown_Line_Type
  0
POLYLINE
  8
Unknown_Line_Type
  70
8
  66
1
 62
0
 39
0
  0
VERTEX
  8
Unknown_Line_Type
  70
32
  10
1810750.04
  20
3198979.16
  30
2174
  0
VERTEX
  8
Unknown_Line_Type
  70
32
  10
1810750.34
  20
3198979.35
  30
2174
  0
VERTEX
  8
Unknown_Line_Type
  70
32
  10
1810751.16
  20
3198979.61
  30
2174
  0
VERTEX
  8
Unknown_Line_Type
  70
32
  10
1810752.42
  20
3198979.89
  30
2174
  0
VERTEX
  8
Unknown_Line_Type
  70
32
  10
1810754.04
  20
3198980.12
  30
2174
  0
VERTEX
  8
Unknown_Line_Type
  70
32
  10
1810755.72
  20
3198980.23
  30
2174
  0
VERTEX
  8
Unknown_Line_Type
  70
32
  10
1810756.00
  20
3198980.24
  30
2174
  0
SEQEND
  8
Unknown_Line_Type
  0
POLYLINE
  8
Unknown_Line_Type
  70
8
  66
1
 62
0
 39
0
  0
VERTEX
  8
Unknown_Line_Type
  70
32
  10
1810566.11
  20
3199311.00
  30
2134
  0
VERTEX
  8
Unknown_Line_Type
  70
32
  10
1810566.52
  20
3199310.99
  30
2134
  0
VERTEX
  8
Unknown_Line_Type
  70
32
  10
1810566.55
  20
3199311.00
  30
2134
  0
SEQEND
  8
Unknown_Line_Type
  0
ENDSEC
  0
EOF
