  0
SECTION
  2
HEADER
  9
$ACADVER
  1
AC1009
  9
$LUNITS
  70
2
  9
$LIMMIN
  10
1818958.00
  20
3215715.00
  9
$LIMMAX
  10
1827160.00
  20
3223917.00
  9
$EXTMIN
  10
1818958.00
  20
3215715.00
  9
$EXTMAX
  10
1827160.00
  20
3223917.00
  999
Created by Global Mapper
  999
Projection: State Plane Coordinate System
  999
Datum: NAD83
  999
Ground Units: feet
  999
ZONE: 5004
  999
STATE PLANE SCALE FACTOR: 1
  999
EXTRA FALSE EASTING (m): 0
  999
EXTRA FALSE NORTHING (m): 0
  999
EXTRA SCALE CENTER EASTING (m): 0
  999
EXTRA SCALE CENTER NORTHING (m): 0
  0
ENDSEC
  0
SECTION
  2
BLOCKS
  0
BLOCK
  8
FeatureAttribs
  70
0
  2
FEATURE
  3
FEATURE
  10
0.00000000
  20
0.00000000
  0
ATTDEF
  8
FeatureAttribs
  70
0
  1
 
  2
NAME
  3
NAME
  10
0.00000000
  20
0.00000000
  40
1.00000000
  0
ENDBLK
  0
ENDSEC
  0
SECTION
  2
ENTITIES
  0
POLYLINE
  8
Unknown_Line_Type
  70
8
  66
1
 62
0
 39
0
  0
VERTEX
  8
Unknown_Line_Type
  70
32
  10
1819291.06
  20
3215715.00
  30
3216
  0
VERTEX
  8
Unknown_Line_Type
  70
32
  10
1819291.06
  20
3215715.00
  30
3216
  0
SEQEND
  8
Unknown_Line_Type
  0
POLYLINE
  8
Unknown_Line_Type
  70
8
  66
1
 62
0
 39
0
  0
VERTEX
  8
Unknown_Line_Type
  70
32
  10
1819285.61
  20
3215715.00
  30
3218
  0
VERTEX
  8
Unknown_Line_Type
  70
32
  10
1819285.61
  20
3215715.00
  30
3218
  0
SEQEND
  8
Unknown_Line_Type
  0
POLYLINE
  8
Unknown_Line_Type
  70
8
  66
1
 62
0
 39
0
  0
VERTEX
  8
Unknown_Line_Type
  70
32
  10
1819282.70
  20
3215715.00
  30
3220
  0
VERTEX
  8
Unknown_Line_Type
  70
32
  10
1819282.70
  20
3215715.00
  30
3220
  0
SEQEND
  8
Unknown_Line_Type
  0
POLYLINE
  8
Unknown_Line_Type
  70
8
  66
1
 62
0
 39
0
  0
VERTEX
  8
Unknown_Line_Type
  70
32
  10
1819279.76
  20
3215715.00
  30
3222
  0
VERTEX
  8
Unknown_Line_Type
  70
32
  10
1819279.76
  20
3215715.00
  30
3222
  0
SEQEND
  8
Unknown_Line_Type
  0
POLYLINE
  8
Unknown_Line_Type
  70
8
  66
1
 62
0
 39
0
  0
VERTEX
  8
Unknown_Line_Type
  70
32
  10
1819275.29
  20
3215715.00
  30
3224
  0
VERTEX
  8
Unknown_Line_Type
  70
32
  10
1819275.29
  20
3215715.00
  30
3224
  0
SEQEND
  8
Unknown_Line_Type
  0
POLYLINE
  8
Unknown_Line_Type
  70
8
  66
1
 62
0
 39
0
  0
VERTEX
  8
Unknown_Line_Type
  70
32
  10
1819269.47
  20
3215715.00
  30
3226
  0
VERTEX
  8
Unknown_Line_Type
  70
32
  10
1819269.47
  20
3215715.00
  30
3226
  0
SEQEND
  8
Unknown_Line_Type
  0
POLYLINE
  8
Unknown_Line_Type
  70
8
  66
1
 62
0
 39
0
  0
VERTEX
  8
Unknown_Line_Type
  70
32
  10
1819262.67
  20
3215715.00
  30
3228
  0
VERTEX
  8
Unknown_Line_Type
  70
32
  10
1819262.67
  20
3215715.00
  30
3228
  0
SEQEND
  8
Unknown_Line_Type
  0
POLYLINE
  8
Unknown_Line_Type
  70
8
  66
1
 62
0
 39
0
  0
VERTEX
  8
Unknown_Line_Type
  70
32
  10
1819249.51
  20
3215715.00
  30
3230
  0
VERTEX
  8
Unknown_Line_Type
  70
32
  10
1819249.51
  20
3215715.00
  30
3230
  0
SEQEND
  8
Unknown_Line_Type
  0
POLYLINE
  8
Unknown_Line_Type
  70
8
  66
1
 62
0
 39
0
  0
VERTEX
  8
Unknown_Line_Type
  70
32
  10
1819238.81
  20
3215715.00
  30
3232
  0
VERTEX
  8
Unknown_Line_Type
  70
32
  10
1819238.81
  20
3215715.00
  30
3232
  0
SEQEND
  8
Unknown_Line_Type
  0
POLYLINE
  8
Unknown_Line_Type
  70
8
  66
1
 62
0
 39
0
  0
VERTEX
  8
Unknown_Line_Type
  70
32
  10
1819221.28
  20
3215715.00
  30
3234
  0
VERTEX
  8
Unknown_Line_Type
  70
32
  10
1819221.28
  20
3215715.00
  30
3234
  0
SEQEND
  8
Unknown_Line_Type
  0
POLYLINE
  8
Unknown_Line_Type
  70
8
  66
1
 62
0
 39
0
  0
VERTEX
  8
Unknown_Line_Type
  70
32
  10
1819211.86
  20
3215715.00
  30
3234
  0
VERTEX
  8
Unknown_Line_Type
  70
32
  10
1819211.86
  20
3215715.00
  30
3234
  0
SEQEND
  8
Unknown_Line_Type
  0
POLYLINE
  8
Unknown_Line_Type
  70
8
  66
1
 62
0
 39
0
  0
VERTEX
  8
Unknown_Line_Type
  70
32
  10
1819148.49
  20
3215715.00
  30
3234
  0
VERTEX
  8
Unknown_Line_Type
  70
32
  10
1819148.49
  20
3215715.00
  30
3234
  0
SEQEND
  8
Unknown_Line_Type
  0
POLYLINE
  8
Unknown_Line_Type
  70
8
  66
1
 62
0
 39
0
  0
VERTEX
  8
Unknown_Line_Type
  70
32
  10
1819147.94
  20
3215715.00
  30
3234
  0
VERTEX
  8
Unknown_Line_Type
  70
32
  10
1819147.94
  20
3215715.00
  30
3234
  0
SEQEND
  8
Unknown_Line_Type
  0
POLYLINE
  8
Unknown_Line_Type
  70
8
  66
1
 62
0
 39
0
  0
VERTEX
  8
Unknown_Line_Type
  70
32
  10
1819141.59
  20
3215715.00
  30
3234
  0
VERTEX
  8
Unknown_Line_Type
  70
32
  10
1819141.59
  20
3215715.00
  30
3234
  0
SEQEND
  8
Unknown_Line_Type
  0
POLYLINE
  8
Unknown_Line_Type
  70
8
  66
1
 62
0
 39
0
  0
VERTEX
  8
Unknown_Line_Type
  70
32
  10
1819099.56
  20
3215715.00
  30
3236
  0
VERTEX
  8
Unknown_Line_Type
  70
32
  10
1819099.56
  20
3215715.00
  30
3236
  0
SEQEND
  8
Unknown_Line_Type
  0
POLYLINE
  8
Unknown_Line_Type
  70
8
  66
1
 62
0
 39
0
  0
VERTEX
  8
Unknown_Line_Type
  70
32
  10
1819007.78
  20
3215715.00
  30
3238
  0
VERTEX
  8
Unknown_Line_Type
  70
32
  10
1819007.78
  20
3215715.00
  30
3238
  0
SEQEND
  8
Unknown_Line_Type
  0
POLYLINE
  8
Unknown_Line_Type
  70
8
  66
1
 62
0
 39
0
  0
VERTEX
  8
Unknown_Line_Type
  70
32
  10
1818958.00
  20
3215742.37
  30
3240
  0
VERTEX
  8
Unknown_Line_Type
  70
32
  10
1818958.00
  20
3215742.37
  30
3240
  0
SEQEND
  8
Unknown_Line_Type
  0
POLYLINE
  8
Unknown_Line_Type
  70
8
  66
1
 62
0
 39
0
  0
VERTEX
  8
Unknown_Line_Type
  70
32
  10
1818958.00
  20
3215741.68
  30
3240
  0
VERTEX
  8
Unknown_Line_Type
  70
32
  10
1818958.00
  20
3215741.68
  30
3240
  0
SEQEND
  8
Unknown_Line_Type
  0
POLYLINE
  8
Unknown_Line_Type
  70
8
  66
1
 62
0
 39
0
  0
VERTEX
  8
Unknown_Line_Type
  70
32
  10
1818958.00
  20
3215727.25
  30
3240
  0
VERTEX
  8
Unknown_Line_Type
  70
32
  10
1818958.00
  20
3215727.25
  30
3240
  0
SEQEND
  8
Unknown_Line_Type
  0
POLYLINE
  8
Unknown_Line_Type
  70
8
  66
1
 62
0
 39
0
  0
VERTEX
  8
Unknown_Line_Type
  70
32
  10
1818958.00
  20
3215785.82
  30
3242
  0
VERTEX
  8
Unknown_Line_Type
  70
32
  10
1818958.00
  20
3215785.82
  30
3242
  0
SEQEND
  8
Unknown_Line_Type
  0
POLYLINE
  8
Unknown_Line_Type
  70
8
  66
1
 62
0
 39
0
  0
VERTEX
  8
Unknown_Line_Type
  70
32
  10
1818958.00
  20
3215827.67
  30
3244
  0
VERTEX
  8
Unknown_Line_Type
  70
32
  10
1818958.00
  20
3215827.67
  30
3244
  0
SEQEND
  8
Unknown_Line_Type
  0
POLYLINE
  8
Unknown_Line_Type
  70
8
  66
1
 62
0
 39
0
  0
VERTEX
  8
Unknown_Line_Type
  70
32
  10
1818958.00
  20
3215857.15
  30
3246
  0
VERTEX
  8
Unknown_Line_Type
  70
32
  10
1818958.00
  20
3215857.15
  30
3246
  0
SEQEND
  8
Unknown_Line_Type
  0
POLYLINE
  8
Unknown_Line_Type
  70
8
  66
1
 62
0
 39
0
  0
VERTEX
  8
Unknown_Line_Type
  70
32
  10
1818958.00
  20
3215884.52
  30
3248
  0
VERTEX
  8
Unknown_Line_Type
  70
32
  10
1818958.00
  20
3215884.52
  30
3248
  0
SEQEND
  8
Unknown_Line_Type
  0
POLYLINE
  8
Unknown_Line_Type
  70
8
  66
1
 62
0
 39
0
  0
VERTEX
  8
Unknown_Line_Type
  70
32
  10
1818958.00
  20
3215887.86
  30
3250
  0
VERTEX
  8
Unknown_Line_Type
  70
32
  10
1818958.00
  20
3215887.86
  30
3250
  0
SEQEND
  8
Unknown_Line_Type
  0
POLYLINE
  8
Unknown_Line_Type
  70
8
  66
1
 62
0
 39
0
  0
VERTEX
  8
Unknown_Line_Type
  70
32
  10
1818958.00
  20
3215891.35
  30
3252
  0
VERTEX
  8
Unknown_Line_Type
  70
32
  10
1818958.00
  20
3215891.35
  30
3252
  0
SEQEND
  8
Unknown_Line_Type
  0
POLYLINE
  8
Unknown_Line_Type
  70
8
  66
1
 62
0
 39
0
  0
VERTEX
  8
Unknown_Line_Type
  70
32
  10
1818958.00
  20
3215894.90
  30
3254
  0
VERTEX
  8
Unknown_Line_Type
  70
32
  10
1818958.00
  20
3215894.90
  30
3254
  0
SEQEND
  8
Unknown_Line_Type
  0
POLYLINE
  8
Unknown_Line_Type
  70
8
  66
1
 62
0
 39
0
  0
VERTEX
  8
Unknown_Line_Type
  70
32
  10
1818958.00
  20
3215898.76
  30
3256
  0
VERTEX
  8
Unknown_Line_Type
  70
32
  10
1818958.00
  20
3215898.76
  30
3256
  0
SEQEND
  8
Unknown_Line_Type
  0
POLYLINE
  8
Unknown_Line_Type
  70
8
  66
1
 62
0
 39
0
  0
VERTEX
  8
Unknown_Line_Type
  70
32
  10
1818958.00
  20
3215908.75
  30
3258
  0
VERTEX
  8
Unknown_Line_Type
  70
32
  10
1818958.00
  20
3215908.75
  30
3258
  0
SEQEND
  8
Unknown_Line_Type
  0
POLYLINE
  8
Unknown_Line_Type
  70
8
  66
1
 62
0
 39
0
  0
VERTEX
  8
Unknown_Line_Type
  70
32
  10
1818958.00
  20
3215914.17
  30
3260
  0
VERTEX
  8
Unknown_Line_Type
  70
32
  10
1818958.00
  20
3215914.17
  30
3260
  0
SEQEND
  8
Unknown_Line_Type
  0
POLYLINE
  8
Unknown_Line_Type
  70
8
  66
1
 62
0
 39
0
  0
VERTEX
  8
Unknown_Line_Type
  70
32
  10
1818958.00
  20
3215919.19
  30
3262
  0
VERTEX
  8
Unknown_Line_Type
  70
32
  10
1818958.00
  20
3215919.19
  30
3262
  0
SEQEND
  8
Unknown_Line_Type
  0
POLYLINE
  8
Unknown_Line_Type
  70
8
  66
1
 62
0
 39
0
  0
VERTEX
  8
Unknown_Line_Type
  70
32
  10
1818958.00
  20
3215924.13
  30
3264
  0
VERTEX
  8
Unknown_Line_Type
  70
32
  10
1818958.00
  20
3215924.13
  30
3264
  0
SEQEND
  8
Unknown_Line_Type
  0
POLYLINE
  8
Unknown_Line_Type
  70
8
  66
1
 62
0
 39
0
  0
VERTEX
  8
Unknown_Line_Type
  70
32
  10
1818958.00
  20
3215929.72
  30
3266
  0
VERTEX
  8
Unknown_Line_Type
  70
32
  10
1818958.00
  20
3215929.72
  30
3266
  0
SEQEND
  8
Unknown_Line_Type
  0
POLYLINE
  8
Unknown_Line_Type
  70
8
  66
1
 62
0
 39
0
  0
VERTEX
  8
Unknown_Line_Type
  70
32
  10
1818958.00
  20
3215936.09
  30
3268
  0
VERTEX
  8
Unknown_Line_Type
  70
32
  10
1818958.00
  20
3215936.09
  30
3268
  0
SEQEND
  8
Unknown_Line_Type
  0
POLYLINE
  8
Unknown_Line_Type
  70
8
  66
1
 62
0
 39
0
  0
VERTEX
  8
Unknown_Line_Type
  70
32
  10
1818958.00
  20
3215942.46
  30
3270
  0
VERTEX
  8
Unknown_Line_Type
  70
32
  10
1818958.00
  20
3215942.46
  30
3270
  0
SEQEND
  8
Unknown_Line_Type
  0
POLYLINE
  8
Unknown_Line_Type
  70
8
  66
1
 62
0
 39
0
  0
VERTEX
  8
Unknown_Line_Type
  70
32
  10
1818958.00
  20
3215947.42
  30
3272
  0
VERTEX
  8
Unknown_Line_Type
  70
32
  10
1818958.00
  20
3215947.42
  30
3272
  0
SEQEND
  8
Unknown_Line_Type
  0
POLYLINE
  8
Unknown_Line_Type
  70
8
  66
1
 62
0
 39
0
  0
VERTEX
  8
Unknown_Line_Type
  70
32
  10
1818958.00
  20
3215951.57
  30
3274
  0
VERTEX
  8
Unknown_Line_Type
  70
32
  10
1818958.00
  20
3215951.57
  30
3274
  0
SEQEND
  8
Unknown_Line_Type
  0
POLYLINE
  8
Unknown_Line_Type
  70
8
  66
1
 62
0
 39
0
  0
VERTEX
  8
Unknown_Line_Type
  70
32
  10
1818958.00
  20
3215957.53
  30
3276
  0
VERTEX
  8
Unknown_Line_Type
  70
32
  10
1818958.00
  20
3215957.53
  30
3276
  0
SEQEND
  8
Unknown_Line_Type
  0
POLYLINE
  8
Unknown_Line_Type
  70
8
  66
1
 62
0
 39
0
  0
VERTEX
  8
Unknown_Line_Type
  70
32
  10
1818958.00
  20
3215965.46
  30
3278
  0
VERTEX
  8
Unknown_Line_Type
  70
32
  10
1818958.00
  20
3215965.46
  30
3278
  0
SEQEND
  8
Unknown_Line_Type
  0
POLYLINE
  8
Unknown_Line_Type
  70
8
  66
1
 62
0
 39
0
  0
VERTEX
  8
Unknown_Line_Type
  70
32
  10
1818958.00
  20
3215972.74
  30
3280
  0
VERTEX
  8
Unknown_Line_Type
  70
32
  10
1818958.00
  20
3215972.74
  30
3280
  0
SEQEND
  8
Unknown_Line_Type
  0
POLYLINE
  8
Unknown_Line_Type
  70
8
  66
1
 62
0
 39
0
  0
VERTEX
  8
Unknown_Line_Type
  70
32
  10
1818958.00
  20
3215989.70
  30
3282
  0
VERTEX
  8
Unknown_Line_Type
  70
32
  10
1818958.00
  20
3215989.70
  30
3282
  0
SEQEND
  8
Unknown_Line_Type
  0
POLYLINE
  8
Unknown_Line_Type
  70
8
  66
1
 62
0
 39
0
  0
VERTEX
  8
Unknown_Line_Type
  70
32
  10
1818958.00
  20
3215997.51
  30
3284
  0
VERTEX
  8
Unknown_Line_Type
  70
32
  10
1818958.00
  20
3215997.51
  30
3284
  0
SEQEND
  8
Unknown_Line_Type
  0
POLYLINE
  8
Unknown_Line_Type
  70
8
  66
1
 62
0
 39
0
  0
VERTEX
  8
Unknown_Line_Type
  70
32
  10
1818958.00
  20
3216004.37
  30
3286
  0
VERTEX
  8
Unknown_Line_Type
  70
32
  10
1818958.00
  20
3216004.37
  30
3286
  0
SEQEND
  8
Unknown_Line_Type
  0
POLYLINE
  8
Unknown_Line_Type
  70
8
  66
1
 62
0
 39
0
  0
VERTEX
  8
Unknown_Line_Type
  70
32
  10
1818958.00
  20
3216009.27
  30
3288
  0
VERTEX
  8
Unknown_Line_Type
  70
32
  10
1818958.00
  20
3216009.27
  30
3288
  0
SEQEND
  8
Unknown_Line_Type
  0
POLYLINE
  8
Unknown_Line_Type
  70
8
  66
1
 62
0
 39
0
  0
VERTEX
  8
Unknown_Line_Type
  70
32
  10
1818958.00
  20
3216015.46
  30
3290
  0
VERTEX
  8
Unknown_Line_Type
  70
32
  10
1818958.00
  20
3216015.46
  30
3290
  0
SEQEND
  8
Unknown_Line_Type
  0
POLYLINE
  8
Unknown_Line_Type
  70
8
  66
1
 62
0
 39
0
  0
VERTEX
  8
Unknown_Line_Type
  70
32
  10
1818958.00
  20
3216024.39
  30
3292
  0
VERTEX
  8
Unknown_Line_Type
  70
32
  10
1818958.00
  20
3216024.39
  30
3292
  0
SEQEND
  8
Unknown_Line_Type
  0
POLYLINE
  8
Unknown_Line_Type
  70
8
  66
1
 62
0
 39
0
  0
VERTEX
  8
Unknown_Line_Type
  70
32
  10
1818958.00
  20
3216034.67
  30
3294
  0
VERTEX
  8
Unknown_Line_Type
  70
32
  10
1818958.00
  20
3216034.67
  30
3294
  0
SEQEND
  8
Unknown_Line_Type
  0
POLYLINE
  8
Unknown_Line_Type
  70
8
  66
1
 62
0
 39
0
  0
VERTEX
  8
Unknown_Line_Type
  70
32
  10
1818958.00
  20
3216050.42
  30
3296
  0
VERTEX
  8
Unknown_Line_Type
  70
32
  10
1818958.00
  20
3216050.42
  30
3296
  0
SEQEND
  8
Unknown_Line_Type
  0
POLYLINE
  8
Unknown_Line_Type
  70
8
  66
1
 62
0
 39
0
  0
VERTEX
  8
Unknown_Line_Type
  70
32
  10
1818958.00
  20
3216054.64
  30
3298
  0
VERTEX
  8
Unknown_Line_Type
  70
32
  10
1818958.00
  20
3216054.64
  30
3298
  0
SEQEND
  8
Unknown_Line_Type
  0
POLYLINE
  8
Unknown_Line_Type
  70
8
  66
1
 62
0
 39
0
  0
VERTEX
  8
Unknown_Line_Type
  70
32
  10
1818958.00
  20
3216059.41
  30
3300
  0
VERTEX
  8
Unknown_Line_Type
  70
32
  10
1818958.00
  20
3216059.41
  30
3300
  0
SEQEND
  8
Unknown_Line_Type
  0
POLYLINE
  8
Unknown_Line_Type
  70
8
  66
1
 62
0
 39
0
  0
VERTEX
  8
Unknown_Line_Type
  70
32
  10
1818958.00
  20
3216067.46
  30
3302
  0
VERTEX
  8
Unknown_Line_Type
  70
32
  10
1818958.00
  20
3216067.46
  30
3302
  0
SEQEND
  8
Unknown_Line_Type
  0
POLYLINE
  8
Unknown_Line_Type
  70
8
  66
1
 62
0
 39
0
  0
VERTEX
  8
Unknown_Line_Type
  70
32
  10
1818958.00
  20
3216073.83
  30
3304
  0
VERTEX
  8
Unknown_Line_Type
  70
32
  10
1818958.00
  20
3216073.83
  30
3304
  0
SEQEND
  8
Unknown_Line_Type
  0
POLYLINE
  8
Unknown_Line_Type
  70
8
  66
1
 62
0
 39
0
  0
VERTEX
  8
Unknown_Line_Type
  70
32
  10
1818958.00
  20
3216079.75
  30
3306
  0
VERTEX
  8
Unknown_Line_Type
  70
32
  10
1818958.00
  20
3216079.75
  30
3306
  0
SEQEND
  8
Unknown_Line_Type
  0
POLYLINE
  8
Unknown_Line_Type
  70
8
  66
1
 62
0
 39
0
  0
VERTEX
  8
Unknown_Line_Type
  70
32
  10
1819298.04
  20
3215722.36
  30
3216
  0
VERTEX
  8
Unknown_Line_Type
  70
32
  10
1819297.82
  20
3215721.89
  30
3216
  0
VERTEX
  8
Unknown_Line_Type
  70
32
  10
1819297.29
  20
3215720.28
  30
3216
  0
VERTEX
  8
Unknown_Line_Type
  70
32
  10
1819297.11
  20
3215719.95
  30
3216
  0
VERTEX
  8
Unknown_Line_Type
  70
32
  10
1819296.86
  20
3215719.64
  30
3216
  0
VERTEX
  8
Unknown_Line_Type
  70
32
  10
1819296.09
  20
3215718.97
  30
3216
  0
VERTEX
  8
Unknown_Line_Type
  70
32
  10
1819291.06
  20
3215715.00
  30
3216
  0
SEQEND
  8
Unknown_Line_Type
  0
POLYLINE
  8
Unknown_Line_Type
  70
8
  66
1
 62
0
 39
0
  0
VERTEX
  8
Unknown_Line_Type
  70
32
  10
1819285.61
  20
3215715.00
  30
3218
  0
VERTEX
  8
Unknown_Line_Type
  70
32
  10
1819287.21
  20
3215718.39
  30
3218
  0
VERTEX
  8
Unknown_Line_Type
  70
32
  10
1819287.58
  20
3215719.24
  30
3218
  0
VERTEX
  8
Unknown_Line_Type
  70
32
  10
1819287.86
  20
3215719.97
  30
3218
  0
VERTEX
  8
Unknown_Line_Type
  70
32
  10
1819288.15
  20
3215721.11
  30
3218
  0
VERTEX
  8
Unknown_Line_Type
  70
32
  10
1819288.54
  20
3215723.23
  30
3218
  0
VERTEX
  8
Unknown_Line_Type
  70
32
  10
1819288.74
  20
3215724.13
  30
3218
  0
VERTEX
  8
Unknown_Line_Type
  70
32
  10
1819288.99
  20
3215724.97
  30
3218
  0
VERTEX
  8
Unknown_Line_Type
  70
32
  10
1819289.40
  20
3215726.08
  30
3218
  0
VERTEX
  8
Unknown_Line_Type
  70
32
  10
1819289.76
  20
3215726.89
  30
3218
  0
VERTEX
  8
Unknown_Line_Type
  70
32
  10
1819290.10
  20
3215727.54
  30
3218
  0
VERTEX
  8
Unknown_Line_Type
  70
32
  10
1819291.33
  20
3215729.54
  30
3218
  0
SEQEND
  8
Unknown_Line_Type
  0
POLYLINE
  8
Unknown_Line_Type
  70
8
  66
1
 62
0
 39
0
  0
VERTEX
  8
Unknown_Line_Type
  70
32
  10
1819282.70
  20
3215715.00
  30
3220
  0
VERTEX
  8
Unknown_Line_Type
  70
32
  10
1819284.47
  20
3215718.76
  30
3220
  0
VERTEX
  8
Unknown_Line_Type
  70
32
  10
1819284.92
  20
3215719.80
  30
3220
  0
VERTEX
  8
Unknown_Line_Type
  70
32
  10
1819285.32
  20
3215720.85
  30
3220
  0
VERTEX
  8
Unknown_Line_Type
  70
32
  10
1819285.62
  20
3215721.91
  30
3220
  0
VERTEX
  8
Unknown_Line_Type
  70
32
  10
1819285.83
  20
3215722.99
  30
3220
  0
VERTEX
  8
Unknown_Line_Type
  70
32
  10
1819286.37
  20
3215726.26
  30
3220
  0
VERTEX
  8
Unknown_Line_Type
  70
32
  10
1819286.80
  20
3215729.19
  30
3220
  0
VERTEX
  8
Unknown_Line_Type
  70
32
  10
1819286.97
  20
3215729.98
  30
3220
  0
VERTEX
  8
Unknown_Line_Type
  70
32
  10
1819287.10
  20
3215730.43
  30
3220
  0
VERTEX
  8
Unknown_Line_Type
  70
32
  10
1819287.48
  20
3215731.28
  30
3220
  0
VERTEX
  8
Unknown_Line_Type
  70
32
  10
1819287.90
  20
3215731.99
  30
3220
  0
VERTEX
  8
Unknown_Line_Type
  70
32
  10
1819288.39
  20
3215732.68
  30
3220
  0
SEQEND
  8
Unknown_Line_Type
  0
POLYLINE
  8
Unknown_Line_Type
  70
8
  66
1
 62
0
 39
0
  0
VERTEX
  8
Unknown_Line_Type
  70
32
  10
1819279.76
  20
3215715.00
  30
3222
  0
VERTEX
  8
Unknown_Line_Type
  70
32
  10
1819280.68
  20
3215716.90
  30
3222
  0
VERTEX
  8
Unknown_Line_Type
  70
32
  10
1819281.89
  20
3215719.53
  30
3222
  0
VERTEX
  8
Unknown_Line_Type
  70
32
  10
1819282.52
  20
3215721.03
  30
3222
  0
VERTEX
  8
Unknown_Line_Type
  70
32
  10
1819282.93
  20
3215722.18
  30
3222
  0
VERTEX
  8
Unknown_Line_Type
  70
32
  10
1819283.29
  20
3215723.74
  30
3222
  0
VERTEX
  8
Unknown_Line_Type
  70
32
  10
1819283.63
  20
3215725.73
  30
3222
  0
VERTEX
  8
Unknown_Line_Type
  70
32
  10
1819283.84
  20
3215727.39
  30
3222
  0
VERTEX
  8
Unknown_Line_Type
  70
32
  10
1819284.32
  20
3215731.62
  30
3222
  0
VERTEX
  8
Unknown_Line_Type
  70
32
  10
1819284.56
  20
3215733.10
  30
3222
  0
VERTEX
  8
Unknown_Line_Type
  70
32
  10
1819284.82
  20
3215734.17
  30
3222
  0
VERTEX
  8
Unknown_Line_Type
  70
32
  10
1819284.97
  20
3215734.65
  30
3222
  0
VERTEX
  8
Unknown_Line_Type
  70
32
  10
1819285.26
  20
3215735.36
  30
3222
  0
VERTEX
  8
Unknown_Line_Type
  70
32
  10
1819285.51
  20
3215735.76
  30
3222
  0
SEQEND
  8
Unknown_Line_Type
  0
POLYLINE
  8
Unknown_Line_Type
  70
8
  66
1
 62
0
 39
0
  0
VERTEX
  8
Unknown_Line_Type
  70
32
  10
1819275.29
  20
3215715.00
  30
3224
  0
VERTEX
  8
Unknown_Line_Type
  70
32
  10
1819275.96
  20
3215716.11
  30
3224
  0
VERTEX
  8
Unknown_Line_Type
  70
32
  10
1819277.03
  20
3215717.73
  30
3224
  0
VERTEX
  8
Unknown_Line_Type
  70
32
  10
1819277.81
  20
3215718.76
  30
3224
  0
VERTEX
  8
Unknown_Line_Type
  70
32
  10
1819278.92
  20
3215720.04
  30
3224
  0
VERTEX
  8
Unknown_Line_Type
  70
32
  10
1819279.20
  20
3215720.44
  30
3224
  0
VERTEX
  8
Unknown_Line_Type
  70
32
  10
1819279.45
  20
3215720.87
  30
3224
  0
VERTEX
  8
Unknown_Line_Type
  70
32
  10
1819279.89
  20
3215721.75
  30
3224
  0
VERTEX
  8
Unknown_Line_Type
  70
32
  10
1819280.26
  20
3215722.68
  30
3224
  0
VERTEX
  8
Unknown_Line_Type
  70
32
  10
1819280.54
  20
3215723.61
  30
3224
  0
VERTEX
  8
Unknown_Line_Type
  70
32
  10
1819280.74
  20
3215724.54
  30
3224
  0
VERTEX
  8
Unknown_Line_Type
  70
32
  10
1819280.96
  20
3215725.99
  30
3224
  0
VERTEX
  8
Unknown_Line_Type
  70
32
  10
1819281.44
  20
3215730.39
  30
3224
  0
VERTEX
  8
Unknown_Line_Type
  70
32
  10
1819281.59
  20
3215732.39
  30
3224
  0
VERTEX
  8
Unknown_Line_Type
  70
32
  10
1819281.81
  20
3215737.08
  30
3224
  0
VERTEX
  8
Unknown_Line_Type
  70
32
  10
1819281.97
  20
3215739.56
  30
3224
  0
SEQEND
  8
Unknown_Line_Type
  0
POLYLINE
  8
Unknown_Line_Type
  70
8
  66
1
 62
0
 39
0
  0
VERTEX
  8
Unknown_Line_Type
  70
32
  10
1819269.47
  20
3215715.00
  30
3226
  0
VERTEX
  8
Unknown_Line_Type
  70
32
  10
1819271.70
  20
3215718.80
  30
3226
  0
VERTEX
  8
Unknown_Line_Type
  70
32
  10
1819272.80
  20
3215720.54
  30
3226
  0
VERTEX
  8
Unknown_Line_Type
  70
32
  10
1819273.47
  20
3215721.49
  30
3226
  0
VERTEX
  8
Unknown_Line_Type
  70
32
  10
1819274.12
  20
3215722.30
  30
3226
  0
VERTEX
  8
Unknown_Line_Type
  70
32
  10
1819274.82
  20
3215723.07
  30
3226
  0
VERTEX
  8
Unknown_Line_Type
  70
32
  10
1819276.06
  20
3215724.29
  30
3226
  0
VERTEX
  8
Unknown_Line_Type
  70
32
  10
1819276.44
  20
3215724.71
  30
3226
  0
VERTEX
  8
Unknown_Line_Type
  70
32
  10
1819276.76
  20
3215725.16
  30
3226
  0
VERTEX
  8
Unknown_Line_Type
  70
32
  10
1819277.00
  20
3215725.58
  30
3226
  0
VERTEX
  8
Unknown_Line_Type
  70
32
  10
1819277.19
  20
3215726.02
  30
3226
  0
VERTEX
  8
Unknown_Line_Type
  70
32
  10
1819277.34
  20
3215726.49
  30
3226
  0
VERTEX
  8
Unknown_Line_Type
  70
32
  10
1819277.57
  20
3215727.55
  30
3226
  0
VERTEX
  8
Unknown_Line_Type
  70
32
  10
1819277.75
  20
3215729.36
  30
3226
  0
VERTEX
  8
Unknown_Line_Type
  70
32
  10
1819278.07
  20
3215737.40
  30
3226
  0
VERTEX
  8
Unknown_Line_Type
  70
32
  10
1819278.48
  20
3215743.29
  30
3226
  0
SEQEND
  8
Unknown_Line_Type
  0
POLYLINE
  8
Unknown_Line_Type
  70
8
  66
1
 62
0
 39
0
  0
VERTEX
  8
Unknown_Line_Type
  70
32
  10
1819262.67
  20
3215715.00
  30
3228
  0
VERTEX
  8
Unknown_Line_Type
  70
32
  10
1819262.80
  20
3215715.05
  30
3228
  0
VERTEX
  8
Unknown_Line_Type
  70
32
  10
1819263.07
  20
3215715.28
  30
3228
  0
VERTEX
  8
Unknown_Line_Type
  70
32
  10
1819263.41
  20
3215715.65
  30
3228
  0
VERTEX
  8
Unknown_Line_Type
  70
32
  10
1819264.27
  20
3215716.73
  30
3228
  0
VERTEX
  8
Unknown_Line_Type
  70
32
  10
1819265.24
  20
3215718.10
  30
3228
  0
VERTEX
  8
Unknown_Line_Type
  70
32
  10
1819267.36
  20
3215721.31
  30
3228
  0
VERTEX
  8
Unknown_Line_Type
  70
32
  10
1819268.11
  20
3215722.38
  30
3228
  0
VERTEX
  8
Unknown_Line_Type
  70
32
  10
1819269.68
  20
3215724.45
  30
3228
  0
VERTEX
  8
Unknown_Line_Type
  70
32
  10
1819271.99
  20
3215727.38
  30
3228
  0
VERTEX
  8
Unknown_Line_Type
  70
32
  10
1819272.31
  20
3215727.86
  30
3228
  0
VERTEX
  8
Unknown_Line_Type
  70
32
  10
1819272.61
  20
3215728.42
  30
3228
  0
VERTEX
  8
Unknown_Line_Type
  70
32
  10
1819272.87
  20
3215729.01
  30
3228
  0
VERTEX
  8
Unknown_Line_Type
  70
32
  10
1819273.28
  20
3215730.26
  30
3228
  0
VERTEX
  8
Unknown_Line_Type
  70
32
  10
1819273.60
  20
3215731.55
  30
3228
  0
VERTEX
  8
Unknown_Line_Type
  70
32
  10
1819273.98
  20
3215733.54
  30
3228
  0
VERTEX
  8
Unknown_Line_Type
  70
32
  10
1819274.16
  20
3215734.90
  30
3228
  0
VERTEX
  8
Unknown_Line_Type
  70
32
  10
1819274.32
  20
3215737.01
  30
3228
  0
VERTEX
  8
Unknown_Line_Type
  70
32
  10
1819274.62
  20
3215742.09
  30
3228
  0
VERTEX
  8
Unknown_Line_Type
  70
32
  10
1819274.75
  20
3215744.72
  30
3228
  0
VERTEX
  8
Unknown_Line_Type
  70
32
  10
1819274.82
  20
3215747.20
  30
3228
  0
SEQEND
  8
Unknown_Line_Type
  0
POLYLINE
  8
Unknown_Line_Type
  70
8
  66
1
 62
0
 39
0
  0
VERTEX
  8
Unknown_Line_Type
  70
32
  10
1819249.51
  20
3215715.00
  30
3230
  0
VERTEX
  8
Unknown_Line_Type
  70
32
  10
1819253.36
  20
3215716.38
  30
3230
  0
VERTEX
  8
Unknown_Line_Type
  70
32
  10
1819255.45
  20
3215717.21
  30
3230
  0
VERTEX
  8
Unknown_Line_Type
  70
32
  10
1819256.47
  20
3215717.65
  30
3230
  0
VERTEX
  8
Unknown_Line_Type
  70
32
  10
1819257.40
  20
3215718.10
  30
3230
  0
VERTEX
  8
Unknown_Line_Type
  70
32
  10
1819258.19
  20
3215718.54
  30
3230
  0
VERTEX
  8
Unknown_Line_Type
  70
32
  10
1819258.81
  20
3215718.93
  30
3230
  0
VERTEX
  8
Unknown_Line_Type
  70
32
  10
1819259.40
  20
3215719.36
  30
3230
  0
VERTEX
  8
Unknown_Line_Type
  70
32
  10
1819259.96
  20
3215719.82
  30
3230
  0
VERTEX
  8
Unknown_Line_Type
  70
32
  10
1819260.83
  20
3215720.70
  30
3230
  0
VERTEX
  8
Unknown_Line_Type
  70
32
  10
1819261.82
  20
3215721.85
  30
3230
  0
VERTEX
  8
Unknown_Line_Type
  70
32
  10
1819262.94
  20
3215723.27
  30
3230
  0
VERTEX
  8
Unknown_Line_Type
  70
32
  10
1819264.57
  20
3215725.46
  30
3230
  0
VERTEX
  8
Unknown_Line_Type
  70
32
  10
1819266.15
  20
3215727.67
  30
3230
  0
VERTEX
  8
Unknown_Line_Type
  70
32
  10
1819267.13
  20
3215729.17
  30
3230
  0
VERTEX
  8
Unknown_Line_Type
  70
32
  10
1819267.57
  20
3215729.93
  30
3230
  0
VERTEX
  8
Unknown_Line_Type
  70
32
  10
1819267.87
  20
3215730.49
  30
3230
  0
VERTEX
  8
Unknown_Line_Type
  70
32
  10
1819268.18
  20
3215731.21
  30
3230
  0
VERTEX
  8
Unknown_Line_Type
  70
32
  10
1819268.44
  20
3215731.94
  30
3230
  0
VERTEX
  8
Unknown_Line_Type
  70
32
  10
1819268.86
  20
3215733.45
  30
3230
  0
VERTEX
  8
Unknown_Line_Type
  70
32
  10
1819269.15
  20
3215735.01
  30
3230
  0
VERTEX
  8
Unknown_Line_Type
  70
32
  10
1819269.52
  20
3215738.29
  30
3230
  0
VERTEX
  8
Unknown_Line_Type
  70
32
  10
1819270.08
  20
3215742.46
  30
3230
  0
VERTEX
  8
Unknown_Line_Type
  70
32
  10
1819270.29
  20
3215744.42
  30
3230
  0
VERTEX
  8
Unknown_Line_Type
  70
32
  10
1819270.45
  20
3215746.75
  30
3230
  0
VERTEX
  8
Unknown_Line_Type
  70
32
  10
1819270.64
  20
3215751.68
  30
3230
  0
SEQEND
  8
Unknown_Line_Type
  0
POLYLINE
  8
Unknown_Line_Type
  70
8
  66
1
 62
0
 39
0
  0
VERTEX
  8
Unknown_Line_Type
  70
32
  10
1819238.81
  20
3215715.00
  30
3232
  0
VERTEX
  8
Unknown_Line_Type
  70
32
  10
1819239.65
  20
3215715.75
  30
3232
  0
VERTEX
  8
Unknown_Line_Type
  70
32
  10
1819241.63
  20
3215717.25
  30
3232
  0
VERTEX
  8
Unknown_Line_Type
  70
32
  10
1819243.50
  20
3215718.49
  30
3232
  0
VERTEX
  8
Unknown_Line_Type
  70
32
  10
1819244.62
  20
3215719.16
  30
3232
  0
VERTEX
  8
Unknown_Line_Type
  70
32
  10
1819245.73
  20
3215719.79
  30
3232
  0
VERTEX
  8
Unknown_Line_Type
  70
32
  10
1819247.75
  20
3215720.84
  30
3232
  0
VERTEX
  8
Unknown_Line_Type
  70
32
  10
1819251.21
  20
3215722.43
  30
3232
  0
VERTEX
  8
Unknown_Line_Type
  70
32
  10
1819252.88
  20
3215723.27
  30
3232
  0
VERTEX
  8
Unknown_Line_Type
  70
32
  10
1819253.68
  20
3215723.73
  30
3232
  0
VERTEX
  8
Unknown_Line_Type
  70
32
  10
1819254.82
  20
3215724.50
  30
3232
  0
VERTEX
  8
Unknown_Line_Type
  70
32
  10
1819255.54
  20
3215725.09
  30
3232
  0
VERTEX
  8
Unknown_Line_Type
  70
32
  10
1819256.23
  20
3215725.73
  30
3232
  0
VERTEX
  8
Unknown_Line_Type
  70
32
  10
1819257.52
  20
3215727.09
  30
3232
  0
VERTEX
  8
Unknown_Line_Type
  70
32
  10
1819258.14
  20
3215727.80
  30
3232
  0
VERTEX
  8
Unknown_Line_Type
  70
32
  10
1819259.32
  20
3215729.28
  30
3232
  0
VERTEX
  8
Unknown_Line_Type
  70
32
  10
1819260.40
  20
3215730.77
  30
3232
  0
VERTEX
  8
Unknown_Line_Type
  70
32
  10
1819260.90
  20
3215731.54
  30
3232
  0
VERTEX
  8
Unknown_Line_Type
  70
32
  10
1819261.36
  20
3215732.32
  30
3232
  0
VERTEX
  8
Unknown_Line_Type
  70
32
  10
1819261.77
  20
3215733.12
  30
3232
  0
VERTEX
  8
Unknown_Line_Type
  70
32
  10
1819262.12
  20
3215733.94
  30
3232
  0
VERTEX
  8
Unknown_Line_Type
  70
32
  10
1819262.39
  20
3215734.83
  30
3232
  0
VERTEX
  8
Unknown_Line_Type
  70
32
  10
1819262.60
  20
3215735.74
  30
3232
  0
VERTEX
  8
Unknown_Line_Type
  70
32
  10
1819264.00
  20
3215743.51
  30
3232
  0
VERTEX
  8
Unknown_Line_Type
  70
32
  10
1819265.01
  20
3215748.69
  30
3232
  0
VERTEX
  8
Unknown_Line_Type
  70
32
  10
1819265.68
  20
3215752.35
  30
3232
  0
VERTEX
  8
Unknown_Line_Type
  70
32
  10
1819266.11
  20
3215755.22
  30
3232
  0
VERTEX
  8
Unknown_Line_Type
  70
32
  10
1819266.20
  20
3215756.43
  30
3232
  0
SEQEND
  8
Unknown_Line_Type
  0
POLYLINE
  8
Unknown_Line_Type
  70
8
  66
1
 62
0
 39
0
  0
VERTEX
  8
Unknown_Line_Type
  70
32
  10
1819141.59
  20
3215715.00
  30
3234
  0
VERTEX
  8
Unknown_Line_Type
  70
32
  10
1819142.21
  20
3215715.24
  30
3234
  0
VERTEX
  8
Unknown_Line_Type
  70
32
  10
1819142.54
  20
3215715.30
  30
3234
  0
VERTEX
  8
Unknown_Line_Type
  70
32
  10
1819142.96
  20
3215715.32
  30
3234
  0
VERTEX
  8
Unknown_Line_Type
  70
32
  10
1819146.84
  20
3215715.25
  30
3234
  0
VERTEX
  8
Unknown_Line_Type
  70
32
  10
1819147.49
  20
3215715.17
  30
3234
  0
VERTEX
  8
Unknown_Line_Type
  70
32
  10
1819147.76
  20
3215715.10
  30
3234
  0
VERTEX
  8
Unknown_Line_Type
  70
32
  10
1819147.94
  20
3215715.00
  30
3234
  0
SEQEND
  8
Unknown_Line_Type
  0
POLYLINE
  8
Unknown_Line_Type
  70
8
  66
1
 62
0
 39
0
  0
VERTEX
  8
Unknown_Line_Type
  70
32
  10
1819148.49
  20
3215715.00
  30
3234
  0
VERTEX
  8
Unknown_Line_Type
  70
32
  10
1819148.67
  20
3215715.04
  30
3234
  0
VERTEX
  8
Unknown_Line_Type
  70
32
  10
1819149.08
  20
3215715.29
  30
3234
  0
VERTEX
  8
Unknown_Line_Type
  70
32
  10
1819150.46
  20
3215716.35
  30
3234
  0
VERTEX
  8
Unknown_Line_Type
  70
32
  10
1819151.33
  20
3215717.10
  30
3234
  0
VERTEX
  8
Unknown_Line_Type
  70
32
  10
1819154.13
  20
3215719.67
  30
3234
  0
VERTEX
  8
Unknown_Line_Type
  70
32
  10
1819155.14
  20
3215720.52
  30
3234
  0
VERTEX
  8
Unknown_Line_Type
  70
32
  10
1819156.33
  20
3215721.37
  30
3234
  0
VERTEX
  8
Unknown_Line_Type
  70
32
  10
1819157.52
  20
3215722.07
  30
3234
  0
VERTEX
  8
Unknown_Line_Type
  70
32
  10
1819158.65
  20
3215722.59
  30
3234
  0
VERTEX
  8
Unknown_Line_Type
  70
32
  10
1819159.70
  20
3215722.94
  30
3234
  0
VERTEX
  8
Unknown_Line_Type
  70
32
  10
1819160.76
  20
3215723.18
  30
3234
  0
VERTEX
  8
Unknown_Line_Type
  70
32
  10
1819161.84
  20
3215723.32
  30
3234
  0
VERTEX
  8
Unknown_Line_Type
  70
32
  10
1819162.92
  20
3215723.32
  30
3234
  0
VERTEX
  8
Unknown_Line_Type
  70
32
  10
1819164.02
  20
3215723.18
  30
3234
  0
VERTEX
  8
Unknown_Line_Type
  70
32
  10
1819165.13
  20
3215722.90
  30
3234
  0
VERTEX
  8
Unknown_Line_Type
  70
32
  10
1819166.24
  20
3215722.55
  30
3234
  0
VERTEX
  8
Unknown_Line_Type
  70
32
  10
1819171.86
  20
3215720.36
  30
3234
  0
VERTEX
  8
Unknown_Line_Type
  70
32
  10
1819174.17
  20
3215719.62
  30
3234
  0
VERTEX
  8
Unknown_Line_Type
  70
32
  10
1819176.53
  20
3215719.01
  30
3234
  0
VERTEX
  8
Unknown_Line_Type
  70
32
  10
1819179.00
  20
3215718.50
  30
3234
  0
VERTEX
  8
Unknown_Line_Type
  70
32
  10
1819181.56
  20
3215718.12
  30
3234
  0
VERTEX
  8
Unknown_Line_Type
  70
32
  10
1819185.00
  20
3215717.73
  30
3234
  0
VERTEX
  8
Unknown_Line_Type
  70
32
  10
1819187.41
  20
3215717.38
  30
3234
  0
VERTEX
  8
Unknown_Line_Type
  70
32
  10
1819189.92
  20
3215716.94
  30
3234
  0
VERTEX
  8
Unknown_Line_Type
  70
32
  10
1819194.51
  20
3215715.96
  30
3234
  0
VERTEX
  8
Unknown_Line_Type
  70
32
  10
1819195.66
  20
3215715.75
  30
3234
  0
VERTEX
  8
Unknown_Line_Type
  70
32
  10
1819196.81
  20
3215715.58
  30
3234
  0
VERTEX
  8
Unknown_Line_Type
  70
32
  10
1819198.12
  20
3215715.46
  30
3234
  0
VERTEX
  8
Unknown_Line_Type
  70
32
  10
1819199.53
  20
3215715.40
  30
3234
  0
VERTEX
  8
Unknown_Line_Type
  70
32
  10
1819201.14
  20
3215715.38
  30
3234
  0
VERTEX
  8
Unknown_Line_Type
  70
32
  10
1819206.35
  20
3215715.40
  30
3234
  0
VERTEX
  8
Unknown_Line_Type
  70
32
  10
1819209.40
  20
3215715.34
  30
3234
  0
VERTEX
  8
Unknown_Line_Type
  70
32
  10
1819210.57
  20
3215715.26
  30
3234
  0
VERTEX
  8
Unknown_Line_Type
  70
32
  10
1819211.27
  20
3215715.17
  30
3234
  0
VERTEX
  8
Unknown_Line_Type
  70
32
  10
1819211.71
  20
3215715.08
  30
3234
  0
VERTEX
  8
Unknown_Line_Type
  70
32
  10
1819211.86
  20
3215715.00
  30
3234
  0
SEQEND
  8
Unknown_Line_Type
  0
POLYLINE
  8
Unknown_Line_Type
  70
8
  66
1
 62
0
 39
0
  0
VERTEX
  8
Unknown_Line_Type
  70
32
  10
1819221.28
  20
3215715.00
  30
3234
  0
VERTEX
  8
Unknown_Line_Type
  70
32
  10
1819224.40
  20
3215715.84
  30
3234
  0
VERTEX
  8
Unknown_Line_Type
  70
32
  10
1819228.63
  20
3215717.10
  30
3234
  0
VERTEX
  8
Unknown_Line_Type
  70
32
  10
1819230.11
  20
3215717.60
  30
3234
  0
VERTEX
  8
Unknown_Line_Type
  70
32
  10
1819231.51
  20
3215718.14
  30
3234
  0
VERTEX
  8
Unknown_Line_Type
  70
32
  10
1819232.58
  20
3215718.64
  30
3234
  0
VERTEX
  8
Unknown_Line_Type
  70
32
  10
1819233.51
  20
3215719.17
  30
3234
  0
VERTEX
  8
Unknown_Line_Type
  70
32
  10
1819235.31
  20
3215720.34
  30
3234
  0
VERTEX
  8
Unknown_Line_Type
  70
32
  10
1819241.91
  20
3215724.92
  30
3234
  0
VERTEX
  8
Unknown_Line_Type
  70
32
  10
1819243.71
  20
3215726.27
  30
3234
  0
VERTEX
  8
Unknown_Line_Type
  70
32
  10
1819244.56
  20
3215727.00
  30
3234
  0
VERTEX
  8
Unknown_Line_Type
  70
32
  10
1819245.42
  20
3215727.86
  30
3234
  0
VERTEX
  8
Unknown_Line_Type
  70
32
  10
1819246.24
  20
3215728.77
  30
3234
  0
VERTEX
  8
Unknown_Line_Type
  70
32
  10
1819247.03
  20
3215729.72
  30
3234
  0
VERTEX
  8
Unknown_Line_Type
  70
32
  10
1819251.53
  20
3215735.62
  30
3234
  0
VERTEX
  8
Unknown_Line_Type
  70
32
  10
1819255.16
  20
3215740.13
  30
3234
  0
VERTEX
  8
Unknown_Line_Type
  70
32
  10
1819255.82
  20
3215740.98
  30
3234
  0
VERTEX
  8
Unknown_Line_Type
  70
32
  10
1819256.45
  20
3215741.85
  30
3234
  0
VERTEX
  8
Unknown_Line_Type
  70
32
  10
1819257.01
  20
3215742.76
  30
3234
  0
VERTEX
  8
Unknown_Line_Type
  70
32
  10
1819257.57
  20
3215743.84
  30
3234
  0
VERTEX
  8
Unknown_Line_Type
  70
32
  10
1819258.04
  20
3215744.97
  30
3234
  0
VERTEX
  8
Unknown_Line_Type
  70
32
  10
1819258.45
  20
3215746.13
  30
3234
  0
VERTEX
  8
Unknown_Line_Type
  70
32
  10
1819258.82
  20
3215747.31
  30
3234
  0
VERTEX
  8
Unknown_Line_Type
  70
32
  10
1819260.31
  20
3215752.56
  30
3234
  0
VERTEX
  8
Unknown_Line_Type
  70
32
  10
1819261.08
  20
3215755.04
  30
3234
  0
VERTEX
  8
Unknown_Line_Type
  70
32
  10
1819261.58
  20
3215756.50
  30
3234
  0
VERTEX
  8
Unknown_Line_Type
  70
32
  10
1819262.06
  20
3215757.77
  30
3234
  0
VERTEX
  8
Unknown_Line_Type
  70
32
  10
1819262.49
  20
3215758.79
  30
3234
  0
VERTEX
  8
Unknown_Line_Type
  70
32
  10
1819262.86
  20
3215759.56
  30
3234
  0
VERTEX
  8
Unknown_Line_Type
  70
32
  10
1819262.98
  20
3215759.75
  30
3234
  0
VERTEX
  8
Unknown_Line_Type
  70
32
  10
1819263.05
  20
3215759.79
  30
3234
  0
SEQEND
  8
Unknown_Line_Type
  0
POLYLINE
  8
Unknown_Line_Type
  70
8
  66
1
 62
0
 39
0
  0
VERTEX
  8
Unknown_Line_Type
  70
32
  10
1819099.56
  20
3215715.00
  30
3236
  0
VERTEX
  8
Unknown_Line_Type
  70
32
  10
1819098.74
  20
3215715.20
  30
3236
  0
VERTEX
  8
Unknown_Line_Type
  70
32
  10
1819097.63
  20
3215715.56
  30
3236
  0
VERTEX
  8
Unknown_Line_Type
  70
32
  10
1819096.20
  20
3215716.07
  30
3236
  0
VERTEX
  8
Unknown_Line_Type
  70
32
  10
1819094.56
  20
3215716.75
  30
3236
  0
VERTEX
  8
Unknown_Line_Type
  70
32
  10
1819090.91
  20
3215718.42
  30
3236
  0
VERTEX
  8
Unknown_Line_Type
  70
32
  10
1819089.01
  20
3215719.10
  30
3236
  0
VERTEX
  8
Unknown_Line_Type
  70
32
  10
1819087.22
  20
3215719.45
  30
3236
  0
VERTEX
  8
Unknown_Line_Type
  70
32
  10
1819085.45
  20
3215719.59
  30
3236
  0
VERTEX
  8
Unknown_Line_Type
  70
32
  10
1819083.91
  20
3215719.63
  30
3236
  0
VERTEX
  8
Unknown_Line_Type
  70
32
  10
1819077.63
  20
3215719.65
  30
3236
  0
VERTEX
  8
Unknown_Line_Type
  70
32
  10
1819075.90
  20
3215719.71
  30
3236
  0
VERTEX
  8
Unknown_Line_Type
  70
32
  10
1819074.18
  20
3215719.82
  30
3236
  0
VERTEX
  8
Unknown_Line_Type
  70
32
  10
1819072.46
  20
3215720.02
  30
3236
  0
VERTEX
  8
Unknown_Line_Type
  70
32
  10
1819070.73
  20
3215720.32
  30
3236
  0
VERTEX
  8
Unknown_Line_Type
  70
32
  10
1819069.02
  20
3215720.72
  30
3236
  0
VERTEX
  8
Unknown_Line_Type
  70
32
  10
1819067.34
  20
3215721.22
  30
3236
  0
VERTEX
  8
Unknown_Line_Type
  70
32
  10
1819065.71
  20
3215721.82
  30
3236
  0
VERTEX
  8
Unknown_Line_Type
  70
32
  10
1819064.12
  20
3215722.52
  30
3236
  0
VERTEX
  8
Unknown_Line_Type
  70
32
  10
1819063.26
  20
3215722.97
  30
3236
  0
VERTEX
  8
Unknown_Line_Type
  70
32
  10
1819061.20
  20
3215724.15
  30
3236
  0
VERTEX
  8
Unknown_Line_Type
  70
32
  10
1819060.01
  20
3215724.89
  30
3236
  0
VERTEX
  8
Unknown_Line_Type
  70
32
  10
1819058.84
  20
3215725.66
  30
3236
  0
VERTEX
  8
Unknown_Line_Type
  70
32
  10
1819057.58
  20
3215726.56
  30
3236
  0
VERTEX
  8
Unknown_Line_Type
  70
32
  10
1819056.36
  20
3215727.50
  30
3236
  0
VERTEX
  8
Unknown_Line_Type
  70
32
  10
1819055.19
  20
3215728.48
  30
3236
  0
VERTEX
  8
Unknown_Line_Type
  70
32
  10
1819053.86
  20
3215729.70
  30
3236
  0
VERTEX
  8
Unknown_Line_Type
  70
32
  10
1819052.63
  20
3215730.98
  30
3236
  0
VERTEX
  8
Unknown_Line_Type
  70
32
  10
1819051.54
  20
3215732.33
  30
3236
  0
VERTEX
  8
Unknown_Line_Type
  70
32
  10
1819050.63
  20
3215733.78
  30
3236
  0
VERTEX
  8
Unknown_Line_Type
  70
32
  10
1819049.96
  20
3215735.25
  30
3236
  0
VERTEX
  8
Unknown_Line_Type
  70
32
  10
1819049.46
  20
3215736.81
  30
3236
  0
VERTEX
  8
Unknown_Line_Type
  70
32
  10
1819049.09
  20
3215738.40
  30
3236
  0
VERTEX
  8
Unknown_Line_Type
  70
32
  10
1819048.83
  20
3215740.02
  30
3236
  0
VERTEX
  8
Unknown_Line_Type
  70
32
  10
1819048.44
  20
3215743.16
  30
3236
  0
VERTEX
  8
Unknown_Line_Type
  70
32
  10
1819048.09
  20
3215744.89
  30
3236
  0
VERTEX
  8
Unknown_Line_Type
  70
32
  10
1819046.71
  20
3215750.15
  30
3236
  0
VERTEX
  8
Unknown_Line_Type
  70
32
  10
1819046.37
  20
3215751.77
  30
3236
  0
VERTEX
  8
Unknown_Line_Type
  70
32
  10
1819046.09
  20
3215753.40
  30
3236
  0
VERTEX
  8
Unknown_Line_Type
  70
32
  10
1819045.91
  20
3215754.91
  30
3236
  0
VERTEX
  8
Unknown_Line_Type
  70
32
  10
1819045.83
  20
3215756.40
  30
3236
  0
VERTEX
  8
Unknown_Line_Type
  70
32
  10
1819045.87
  20
3215757.87
  30
3236
  0
VERTEX
  8
Unknown_Line_Type
  70
32
  10
1819046.10
  20
3215759.29
  30
3236
  0
VERTEX
  8
Unknown_Line_Type
  70
32
  10
1819046.21
  20
3215759.72
  30
3236
  0
VERTEX
  8
Unknown_Line_Type
  70
32
  10
1819046.76
  20
3215761.23
  30
3236
  0
VERTEX
  8
Unknown_Line_Type
  70
32
  10
1819047.51
  20
3215762.68
  30
3236
  0
VERTEX
  8
Unknown_Line_Type
  70
32
  10
1819048.41
  20
3215764.09
  30
3236
  0
VERTEX
  8
Unknown_Line_Type
  70
32
  10
1819049.44
  20
3215765.44
  30
3236
  0
VERTEX
  8
Unknown_Line_Type
  70
32
  10
1819050.58
  20
3215766.74
  30
3236
  0
VERTEX
  8
Unknown_Line_Type
  70
32
  10
1819051.81
  20
3215767.97
  30
3236
  0
VERTEX
  8
Unknown_Line_Type
  70
32
  10
1819053.16
  20
3215769.15
  30
3236
  0
VERTEX
  8
Unknown_Line_Type
  70
32
  10
1819054.59
  20
3215770.24
  30
3236
  0
VERTEX
  8
Unknown_Line_Type
  70
32
  10
1819056.08
  20
3215771.24
  30
3236
  0
VERTEX
  8
Unknown_Line_Type
  70
32
  10
1819057.62
  20
3215772.11
  30
3236
  0
VERTEX
  8
Unknown_Line_Type
  70
32
  10
1819059.22
  20
3215772.85
  30
3236
  0
VERTEX
  8
Unknown_Line_Type
  70
32
  10
1819060.86
  20
3215773.41
  30
3236
  0
VERTEX
  8
Unknown_Line_Type
  70
32
  10
1819062.41
  20
3215773.74
  30
3236
  0
VERTEX
  8
Unknown_Line_Type
  70
32
  10
1819063.99
  20
3215773.90
  30
3236
  0
VERTEX
  8
Unknown_Line_Type
  70
32
  10
1819065.60
  20
3215773.91
  30
3236
  0
VERTEX
  8
Unknown_Line_Type
  70
32
  10
1819067.48
  20
3215773.77
  30
3236
  0
VERTEX
  8
Unknown_Line_Type
  70
32
  10
1819069.37
  20
3215773.49
  30
3236
  0
VERTEX
  8
Unknown_Line_Type
  70
32
  10
1819071.25
  20
3215773.12
  30
3236
  0
VERTEX
  8
Unknown_Line_Type
  70
32
  10
1819074.53
  20
3215772.32
  30
3236
  0
VERTEX
  8
Unknown_Line_Type
  70
32
  10
1819080.44
  20
3215770.66
  30
3236
  0
VERTEX
  8
Unknown_Line_Type
  70
32
  10
1819081.72
  20
3215770.38
  30
3236
  0
VERTEX
  8
Unknown_Line_Type
  70
32
  10
1819083.13
  20
3215770.19
  30
3236
  0
VERTEX
  8
Unknown_Line_Type
  70
32
  10
1819084.57
  20
3215770.09
  30
3236
  0
VERTEX
  8
Unknown_Line_Type
  70
32
  10
1819086.22
  20
3215770.04
  30
3236
  0
VERTEX
  8
Unknown_Line_Type
  70
32
  10
1819087.90
  20
3215770.03
  30
3236
  0
VERTEX
  8
Unknown_Line_Type
  70
32
  10
1819094.76
  20
3215770.12
  30
3236
  0
VERTEX
  8
Unknown_Line_Type
  70
32
  10
1819101.66
  20
3215770.03
  30
3236
  0
VERTEX
  8
Unknown_Line_Type
  70
32
  10
1819105.37
  20
3215770.03
  30
3236
  0
VERTEX
  8
Unknown_Line_Type
  70
32
  10
1819107.22
  20
3215769.98
  30
3236
  0
VERTEX
  8
Unknown_Line_Type
  70
32
  10
1819109.11
  20
3215769.86
  30
3236
  0
VERTEX
  8
Unknown_Line_Type
  70
32
  10
1819110.99
  20
3215769.66
  30
3236
  0
VERTEX
  8
Unknown_Line_Type
  70
32
  10
1819116.98
  20
3215768.85
  30
3236
  0
VERTEX
  8
Unknown_Line_Type
  70
32
  10
1819118.75
  20
3215768.57
  30
3236
  0
VERTEX
  8
Unknown_Line_Type
  70
32
  10
1819120.50
  20
3215768.25
  30
3236
  0
VERTEX
  8
Unknown_Line_Type
  70
32
  10
1819122.22
  20
3215767.86
  30
3236
  0
VERTEX
  8
Unknown_Line_Type
  70
32
  10
1819123.90
  20
3215767.37
  30
3236
  0
VERTEX
  8
Unknown_Line_Type
  70
32
  10
1819125.44
  20
3215766.78
  30
3236
  0
VERTEX
  8
Unknown_Line_Type
  70
32
  10
1819126.92
  20
3215766.05
  30
3236
  0
VERTEX
  8
Unknown_Line_Type
  70
32
  10
1819128.32
  20
3215765.20
  30
3236
  0
VERTEX
  8
Unknown_Line_Type
  70
32
  10
1819129.66
  20
3215764.24
  30
3236
  0
VERTEX
  8
Unknown_Line_Type
  70
32
  10
1819133.54
  20
3215761.20
  30
3236
  0
VERTEX
  8
Unknown_Line_Type
  70
32
  10
1819134.76
  20
3215760.31
  30
3236
  0
VERTEX
  8
Unknown_Line_Type
  70
32
  10
1819136.01
  20
3215759.49
  30
3236
  0
VERTEX
  8
Unknown_Line_Type
  70
32
  10
1819137.29
  20
3215758.77
  30
3236
  0
VERTEX
  8
Unknown_Line_Type
  70
32
  10
1819138.60
  20
3215758.21
  30
3236
  0
VERTEX
  8
Unknown_Line_Type
  70
32
  10
1819140.15
  20
3215757.75
  30
3236
  0
VERTEX
  8
Unknown_Line_Type
  70
32
  10
1819150.30
  20
3215755.32
  30
3236
  0
VERTEX
  8
Unknown_Line_Type
  70
32
  10
1819151.67
  20
3215754.95
  30
3236
  0
VERTEX
  8
Unknown_Line_Type
  70
32
  10
1819153.01
  20
3215754.54
  30
3236
  0
VERTEX
  8
Unknown_Line_Type
  70
32
  10
1819154.70
  20
3215753.91
  30
3236
  0
VERTEX
  8
Unknown_Line_Type
  70
32
  10
1819156.12
  20
3215753.18
  30
3236
  0
VERTEX
  8
Unknown_Line_Type
  70
32
  10
1819157.50
  20
3215752.31
  30
3236
  0
VERTEX
  8
Unknown_Line_Type
  70
32
  10
1819158.83
  20
3215751.33
  30
3236
  0
VERTEX
  8
Unknown_Line_Type
  70
32
  10
1819160.14
  20
3215750.28
  30
3236
  0
VERTEX
  8
Unknown_Line_Type
  70
32
  10
1819161.14
  20
3215749.42
  30
3236
  0
VERTEX
  8
Unknown_Line_Type
  70
32
  10
1819163.11
  20
3215747.62
  30
3236
  0
VERTEX
  8
Unknown_Line_Type
  70
32
  10
1819164.06
  20
3215746.68
  30
3236
  0
VERTEX
  8
Unknown_Line_Type
  70
32
  10
1819165.70
  20
3215744.95
  30
3236
  0
VERTEX
  8
Unknown_Line_Type
  70
32
  10
1819168.67
  20
3215741.59
  30
3236
  0
VERTEX
  8
Unknown_Line_Type
  70
32
  10
1819169.92
  20
3215740.26
  30
3236
  0
VERTEX
  8
Unknown_Line_Type
  70
32
  10
1819173.62
  20
3215736.35
  30
3236
  0
VERTEX
  8
Unknown_Line_Type
  70
32
  10
1819174.60
  20
3215735.33
  30
3236
  0
VERTEX
  8
Unknown_Line_Type
  70
32
  10
1819175.82
  20
3215734.14
  30
3236
  0
VERTEX
  8
Unknown_Line_Type
  70
32
  10
1819177.07
  20
3215733.01
  30
3236
  0
VERTEX
  8
Unknown_Line_Type
  70
32
  10
1819178.35
  20
3215731.93
  30
3236
  0
VERTEX
  8
Unknown_Line_Type
  70
32
  10
1819179.67
  20
3215730.93
  30
3236
  0
VERTEX
  8
Unknown_Line_Type
  70
32
  10
1819181.04
  20
3215730.03
  30
3236
  0
VERTEX
  8
Unknown_Line_Type
  70
32
  10
1819182.46
  20
3215729.25
  30
3236
  0
VERTEX
  8
Unknown_Line_Type
  70
32
  10
1819183.87
  20
3215728.63
  30
3236
  0
VERTEX
  8
Unknown_Line_Type
  70
32
  10
1819185.87
  20
3215727.87
  30
3236
  0
VERTEX
  8
Unknown_Line_Type
  70
32
  10
1819188.50
  20
3215726.99
  30
3236
  0
VERTEX
  8
Unknown_Line_Type
  70
32
  10
1819190.15
  20
3215726.48
  30
3236
  0
VERTEX
  8
Unknown_Line_Type
  70
32
  10
1819193.49
  20
3215725.50
  30
3236
  0
VERTEX
  8
Unknown_Line_Type
  70
32
  10
1819196.99
  20
3215724.53
  30
3236
  0
VERTEX
  8
Unknown_Line_Type
  70
32
  10
1819198.75
  20
3215724.09
  30
3236
  0
VERTEX
  8
Unknown_Line_Type
  70
32
  10
1819200.52
  20
3215723.68
  30
3236
  0
VERTEX
  8
Unknown_Line_Type
  70
32
  10
1819202.29
  20
3215723.34
  30
3236
  0
VERTEX
  8
Unknown_Line_Type
  70
32
  10
1819203.62
  20
3215723.12
  30
3236
  0
VERTEX
  8
Unknown_Line_Type
  70
32
  10
1819207.54
  20
3215722.63
  30
3236
  0
VERTEX
  8
Unknown_Line_Type
  70
32
  10
1819210.54
  20
3215722.33
  30
3236
  0
VERTEX
  8
Unknown_Line_Type
  70
32
  10
1819212.29
  20
3215722.23
  30
3236
  0
VERTEX
  8
Unknown_Line_Type
  70
32
  10
1819214.03
  20
3215722.16
  30
3236
  0
VERTEX
  8
Unknown_Line_Type
  70
32
  10
1819216.80
  20
3215722.18
  30
3236
  0
VERTEX
  8
Unknown_Line_Type
  70
32
  10
1819217.83
  20
3215722.24
  30
3236
  0
VERTEX
  8
Unknown_Line_Type
  70
32
  10
1819219.47
  20
3215722.44
  30
3236
  0
VERTEX
  8
Unknown_Line_Type
  70
32
  10
1819221.09
  20
3215722.73
  30
3236
  0
VERTEX
  8
Unknown_Line_Type
  70
32
  10
1819222.70
  20
3215723.11
  30
3236
  0
VERTEX
  8
Unknown_Line_Type
  70
32
  10
1819224.29
  20
3215723.56
  30
3236
  0
VERTEX
  8
Unknown_Line_Type
  70
32
  10
1819225.99
  20
3215724.13
  30
3236
  0
VERTEX
  8
Unknown_Line_Type
  70
32
  10
1819227.64
  20
3215724.79
  30
3236
  0
VERTEX
  8
Unknown_Line_Type
  70
32
  10
1819229.23
  20
3215725.57
  30
3236
  0
VERTEX
  8
Unknown_Line_Type
  70
32
  10
1819230.47
  20
3215726.31
  30
3236
  0
VERTEX
  8
Unknown_Line_Type
  70
32
  10
1819231.65
  20
3215727.12
  30
3236
  0
VERTEX
  8
Unknown_Line_Type
  70
32
  10
1819232.79
  20
3215728.02
  30
3236
  0
VERTEX
  8
Unknown_Line_Type
  70
32
  10
1819234.01
  20
3215729.12
  30
3236
  0
VERTEX
  8
Unknown_Line_Type
  70
32
  10
1819235.18
  20
3215730.30
  30
3236
  0
VERTEX
  8
Unknown_Line_Type
  70
32
  10
1819236.30
  20
3215731.54
  30
3236
  0
VERTEX
  8
Unknown_Line_Type
  70
32
  10
1819237.48
  20
3215732.96
  30
3236
  0
VERTEX
  8
Unknown_Line_Type
  70
32
  10
1819238.62
  20
3215734.42
  30
3236
  0
VERTEX
  8
Unknown_Line_Type
  70
32
  10
1819241.95
  20
3215738.88
  30
3236
  0
VERTEX
  8
Unknown_Line_Type
  70
32
  10
1819243.08
  20
3215740.34
  30
3236
  0
VERTEX
  8
Unknown_Line_Type
  70
32
  10
1819244.24
  20
3215741.78
  30
3236
  0
VERTEX
  8
Unknown_Line_Type
  70
32
  10
1819245.45
  20
3215743.16
  30
3236
  0
VERTEX
  8
Unknown_Line_Type
  70
32
  10
1819246.54
  20
3215744.31
  30
3236
  0
VERTEX
  8
Unknown_Line_Type
  70
32
  10
1819249.04
  20
3215746.75
  30
3236
  0
VERTEX
  8
Unknown_Line_Type
  70
32
  10
1819250.37
  20
3215748.12
  30
3236
  0
VERTEX
  8
Unknown_Line_Type
  70
32
  10
1819251.79
  20
3215749.73
  30
3236
  0
VERTEX
  8
Unknown_Line_Type
  70
32
  10
1819253.22
  20
3215751.53
  30
3236
  0
VERTEX
  8
Unknown_Line_Type
  70
32
  10
1819254.58
  20
3215753.45
  30
3236
  0
VERTEX
  8
Unknown_Line_Type
  70
32
  10
1819255.66
  20
3215755.16
  30
3236
  0
VERTEX
  8
Unknown_Line_Type
  70
32
  10
1819256.64
  20
3215756.85
  30
3236
  0
VERTEX
  8
Unknown_Line_Type
  70
32
  10
1819257.52
  20
3215758.46
  30
3236
  0
VERTEX
  8
Unknown_Line_Type
  70
32
  10
1819259.44
  20
3215762.19
  30
3236
  0
VERTEX
  8
Unknown_Line_Type
  70
32
  10
1819259.95
  20
3215763.11
  30
3236
  0
SEQEND
  8
Unknown_Line_Type
  0
POLYLINE
  8
Unknown_Line_Type
  70
8
  66
1
 62
0
 39
0
  0
VERTEX
  8
Unknown_Line_Type
  70
32
  10
1819007.78
  20
3215715.00
  30
3238
  0
VERTEX
  8
Unknown_Line_Type
  70
32
  10
1819007.37
  20
3215717.32
  30
3238
  0
VERTEX
  8
Unknown_Line_Type
  70
32
  10
1819007.12
  20
3215719.09
  30
3238
  0
VERTEX
  8
Unknown_Line_Type
  70
32
  10
1819006.94
  20
3215721.18
  30
3238
  0
VERTEX
  8
Unknown_Line_Type
  70
32
  10
1819006.87
  20
3215723.61
  30
3238
  0
VERTEX
  8
Unknown_Line_Type
  70
32
  10
1819006.95
  20
3215726.17
  30
3238
  0
VERTEX
  8
Unknown_Line_Type
  70
32
  10
1819007.18
  20
3215728.73
  30
3238
  0
VERTEX
  8
Unknown_Line_Type
  70
32
  10
1819007.52
  20
3215731.18
  30
3238
  0
VERTEX
  8
Unknown_Line_Type
  70
32
  10
1819007.95
  20
3215733.38
  30
3238
  0
VERTEX
  8
Unknown_Line_Type
  70
32
  10
1819008.46
  20
3215735.26
  30
3238
  0
VERTEX
  8
Unknown_Line_Type
  70
32
  10
1819009.04
  20
3215737.03
  30
3238
  0
VERTEX
  8
Unknown_Line_Type
  70
32
  10
1819009.50
  20
3215738.25
  30
3238
  0
VERTEX
  8
Unknown_Line_Type
  70
32
  10
1819010.03
  20
3215739.42
  30
3238
  0
VERTEX
  8
Unknown_Line_Type
  70
32
  10
1819010.63
  20
3215740.53
  30
3238
  0
VERTEX
  8
Unknown_Line_Type
  70
32
  10
1819011.19
  20
3215741.40
  30
3238
  0
VERTEX
  8
Unknown_Line_Type
  70
32
  10
1819014.68
  20
3215746.34
  30
3238
  0
VERTEX
  8
Unknown_Line_Type
  70
32
  10
1819019.18
  20
3215752.35
  30
3238
  0
VERTEX
  8
Unknown_Line_Type
  70
32
  10
1819020.30
  20
3215753.90
  30
3238
  0
VERTEX
  8
Unknown_Line_Type
  70
32
  10
1819021.14
  20
3215755.16
  30
3238
  0
VERTEX
  8
Unknown_Line_Type
  70
32
  10
1819021.90
  20
3215756.43
  30
3238
  0
VERTEX
  8
Unknown_Line_Type
  70
32
  10
1819022.55
  20
3215757.74
  30
3238
  0
VERTEX
  8
Unknown_Line_Type
  70
32
  10
1819023.09
  20
3215759.20
  30
3238
  0
VERTEX
  8
Unknown_Line_Type
  70
32
  10
1819023.46
  20
3215760.70
  30
3238
  0
VERTEX
  8
Unknown_Line_Type
  70
32
  10
1819023.68
  20
3215762.20
  30
3238
  0
VERTEX
  8
Unknown_Line_Type
  70
32
  10
1819023.73
  20
3215763.70
  30
3238
  0
VERTEX
  8
Unknown_Line_Type
  70
32
  10
1819023.60
  20
3215765.18
  30
3238
  0
VERTEX
  8
Unknown_Line_Type
  70
32
  10
1819023.26
  20
3215766.60
  30
3238
  0
VERTEX
  8
Unknown_Line_Type
  70
32
  10
1819022.69
  20
3215767.92
  30
3238
  0
VERTEX
  8
Unknown_Line_Type
  70
32
  10
1819021.93
  20
3215769.16
  30
3238
  0
VERTEX
  8
Unknown_Line_Type
  70
32
  10
1819021.00
  20
3215770.32
  30
3238
  0
VERTEX
  8
Unknown_Line_Type
  70
32
  10
1819019.82
  20
3215771.49
  30
3238
  0
VERTEX
  8
Unknown_Line_Type
  70
32
  10
1819018.55
  20
3215772.59
  30
3238
  0
VERTEX
  8
Unknown_Line_Type
  70
32
  10
1819015.96
  20
3215774.71
  30
3238
  0
VERTEX
  8
Unknown_Line_Type
  70
32
  10
1819015.15
  20
3215775.44
  30
3238
  0
VERTEX
  8
Unknown_Line_Type
  70
32
  10
1819014.39
  20
3215776.17
  30
3238
  0
VERTEX
  8
Unknown_Line_Type
  70
32
  10
1819013.53
  20
3215777.09
  30
3238
  0
VERTEX
  8
Unknown_Line_Type
  70
32
  10
1819012.81
  20
3215778.01
  30
3238
  0
VERTEX
  8
Unknown_Line_Type
  70
32
  10
1819012.28
  20
3215778.93
  30
3238
  0
VERTEX
  8
Unknown_Line_Type
  70
32
  10
1819012.01
  20
3215779.85
  30
3238
  0
VERTEX
  8
Unknown_Line_Type
  70
32
  10
1819012.07
  20
3215780.99
  30
3238
  0
VERTEX
  8
Unknown_Line_Type
  70
32
  10
1819012.53
  20
3215782.10
  30
3238
  0
VERTEX
  8
Unknown_Line_Type
  70
32
  10
1819013.30
  20
3215783.14
  30
3238
  0
VERTEX
  8
Unknown_Line_Type
  70
32
  10
1819013.97
  20
3215783.77
  30
3238
  0
VERTEX
  8
Unknown_Line_Type
  70
32
  10
1819014.76
  20
3215784.32
  30
3238
  0
VERTEX
  8
Unknown_Line_Type
  70
32
  10
1819016.18
  20
3215785.00
  30
3238
  0
VERTEX
  8
Unknown_Line_Type
  70
32
  10
1819017.79
  20
3215785.53
  30
3238
  0
VERTEX
  8
Unknown_Line_Type
  70
32
  10
1819022.76
  20
3215786.86
  30
3238
  0
VERTEX
  8
Unknown_Line_Type
  70
32
  10
1819026.11
  20
3215787.82
  30
3238
  0
VERTEX
  8
Unknown_Line_Type
  70
32
  10
1819027.79
  20
3215788.34
  30
3238
  0
VERTEX
  8
Unknown_Line_Type
  70
32
  10
1819029.53
  20
3215788.95
  30
3238
  0
VERTEX
  8
Unknown_Line_Type
  70
32
  10
1819031.26
  20
3215789.60
  30
3238
  0
VERTEX
  8
Unknown_Line_Type
  70
32
  10
1819032.95
  20
3215790.30
  30
3238
  0
VERTEX
  8
Unknown_Line_Type
  70
32
  10
1819034.60
  20
3215791.05
  30
3238
  0
VERTEX
  8
Unknown_Line_Type
  70
32
  10
1819036.18
  20
3215791.85
  30
3238
  0
VERTEX
  8
Unknown_Line_Type
  70
32
  10
1819037.78
  20
3215792.77
  30
3238
  0
VERTEX
  8
Unknown_Line_Type
  70
32
  10
1819039.26
  20
3215793.74
  30
3238
  0
VERTEX
  8
Unknown_Line_Type
  70
32
  10
1819040.61
  20
3215794.78
  30
3238
  0
VERTEX
  8
Unknown_Line_Type
  70
32
  10
1819041.79
  20
3215795.89
  30
3238
  0
VERTEX
  8
Unknown_Line_Type
  70
32
  10
1819042.75
  20
3215797.08
  30
3238
  0
VERTEX
  8
Unknown_Line_Type
  70
32
  10
1819043.40
  20
3215798.36
  30
3238
  0
VERTEX
  8
Unknown_Line_Type
  70
32
  10
1819043.69
  20
3215799.51
  30
3238
  0
VERTEX
  8
Unknown_Line_Type
  70
32
  10
1819043.79
  20
3215800.73
  30
3238
  0
VERTEX
  8
Unknown_Line_Type
  70
32
  10
1819043.82
  20
3215803.29
  30
3238
  0
VERTEX
  8
Unknown_Line_Type
  70
32
  10
1819043.90
  20
3215804.59
  30
3238
  0
VERTEX
  8
Unknown_Line_Type
  70
32
  10
1819044.20
  20
3215806.20
  30
3238
  0
VERTEX
  8
Unknown_Line_Type
  70
32
  10
1819044.74
  20
3215807.76
  30
3238
  0
VERTEX
  8
Unknown_Line_Type
  70
32
  10
1819045.53
  20
3215809.20
  30
3238
  0
VERTEX
  8
Unknown_Line_Type
  70
32
  10
1819046.26
  20
3215810.13
  30
3238
  0
VERTEX
  8
Unknown_Line_Type
  70
32
  10
1819047.11
  20
3215810.97
  30
3238
  0
VERTEX
  8
Unknown_Line_Type
  70
32
  10
1819048.06
  20
3215811.72
  30
3238
  0
VERTEX
  8
Unknown_Line_Type
  70
32
  10
1819049.28
  20
3215812.47
  30
3238
  0
VERTEX
  8
Unknown_Line_Type
  70
32
  10
1819050.58
  20
3215813.13
  30
3238
  0
VERTEX
  8
Unknown_Line_Type
  70
32
  10
1819051.95
  20
3215813.73
  30
3238
  0
VERTEX
  8
Unknown_Line_Type
  70
32
  10
1819053.39
  20
3215814.30
  30
3238
  0
VERTEX
  8
Unknown_Line_Type
  70
32
  10
1819054.85
  20
3215814.80
  30
3238
  0
VERTEX
  8
Unknown_Line_Type
  70
32
  10
1819056.35
  20
3215815.19
  30
3238
  0
VERTEX
  8
Unknown_Line_Type
  70
32
  10
1819057.85
  20
3215815.43
  30
3238
  0
VERTEX
  8
Unknown_Line_Type
  70
32
  10
1819059.37
  20
3215815.53
  30
3238
  0
VERTEX
  8
Unknown_Line_Type
  70
32
  10
1819060.88
  20
3215815.50
  30
3238
  0
VERTEX
  8
Unknown_Line_Type
  70
32
  10
1819062.52
  20
3215815.29
  30
3238
  0
VERTEX
  8
Unknown_Line_Type
  70
32
  10
1819064.13
  20
3215814.90
  30
3238
  0
VERTEX
  8
Unknown_Line_Type
  70
32
  10
1819065.66
  20
3215814.31
  30
3238
  0
VERTEX
  8
Unknown_Line_Type
  70
32
  10
1819067.23
  20
3215813.45
  30
3238
  0
VERTEX
  8
Unknown_Line_Type
  70
32
  10
1819068.72
  20
3215812.41
  30
3238
  0
VERTEX
  8
Unknown_Line_Type
  70
32
  10
1819073.13
  20
3215808.91
  30
3238
  0
VERTEX
  8
Unknown_Line_Type
  70
32
  10
1819074.60
  20
3215807.84
  30
3238
  0
VERTEX
  8
Unknown_Line_Type
  70
32
  10
1819076.10
  20
3215806.80
  30
3238
  0
VERTEX
  8
Unknown_Line_Type
  70
32
  10
1819080.59
  20
3215803.87
  30
3238
  0
VERTEX
  8
Unknown_Line_Type
  70
32
  10
1819086.46
  20
3215800.14
  30
3238
  0
VERTEX
  8
Unknown_Line_Type
  70
32
  10
1819087.84
  20
3215799.30
  30
3238
  0
VERTEX
  8
Unknown_Line_Type
  70
32
  10
1819089.23
  20
3215798.52
  30
3238
  0
VERTEX
  8
Unknown_Line_Type
  70
32
  10
1819090.65
  20
3215797.86
  30
3238
  0
VERTEX
  8
Unknown_Line_Type
  70
32
  10
1819092.32
  20
3215797.25
  30
3238
  0
VERTEX
  8
Unknown_Line_Type
  70
32
  10
1819095.75
  20
3215796.25
  30
3238
  0
VERTEX
  8
Unknown_Line_Type
  70
32
  10
1819097.46
  20
3215795.70
  30
3238
  0
VERTEX
  8
Unknown_Line_Type
  70
32
  10
1819098.58
  20
3215795.27
  30
3238
  0
VERTEX
  8
Unknown_Line_Type
  70
32
  10
1819099.69
  20
3215794.78
  30
3238
  0
VERTEX
  8
Unknown_Line_Type
  70
32
  10
1819100.90
  20
3215794.20
  30
3238
  0
VERTEX
  8
Unknown_Line_Type
  70
32
  10
1819102.09
  20
3215793.58
  30
3238
  0
VERTEX
  8
Unknown_Line_Type
  70
32
  10
1819104.73
  20
3215792.08
  30
3238
  0
VERTEX
  8
Unknown_Line_Type
  70
32
  10
1819107.47
  20
3215790.44
  30
3238
  0
VERTEX
  8
Unknown_Line_Type
  70
32
  10
1819108.89
  20
3215789.55
  30
3238
  0
VERTEX
  8
Unknown_Line_Type
  70
32
  10
1819110.48
  20
3215788.51
  30
3238
  0
VERTEX
  8
Unknown_Line_Type
  70
32
  10
1819115.23
  20
3215785.34
  30
3238
  0
VERTEX
  8
Unknown_Line_Type
  70
32
  10
1819120.57
  20
3215782.14
  30
3238
  0
VERTEX
  8
Unknown_Line_Type
  70
32
  10
1819122.03
  20
3215781.19
  30
3238
  0
VERTEX
  8
Unknown_Line_Type
  70
32
  10
1819127.87
  20
3215777.29
  30
3238
  0
VERTEX
  8
Unknown_Line_Type
  70
32
  10
1819130.80
  20
3215775.27
  30
3238
  0
VERTEX
  8
Unknown_Line_Type
  70
32
  10
1819132.28
  20
3215774.15
  30
3238
  0
VERTEX
  8
Unknown_Line_Type
  70
32
  10
1819133.73
  20
3215772.99
  30
3238
  0
VERTEX
  8
Unknown_Line_Type
  70
32
  10
1819135.15
  20
3215771.80
  30
3238
  0
VERTEX
  8
Unknown_Line_Type
  70
32
  10
1819139.50
  20
3215767.99
  30
3238
  0
VERTEX
  8
Unknown_Line_Type
  70
32
  10
1819140.99
  20
3215766.74
  30
3238
  0
VERTEX
  8
Unknown_Line_Type
  70
32
  10
1819142.53
  20
3215765.57
  30
3238
  0
VERTEX
  8
Unknown_Line_Type
  70
32
  10
1819144.08
  20
3215764.54
  30
3238
  0
VERTEX
  8
Unknown_Line_Type
  70
32
  10
1819145.69
  20
3215763.61
  30
3238
  0
VERTEX
  8
Unknown_Line_Type
  70
32
  10
1819147.04
  20
3215762.92
  30
3238
  0
VERTEX
  8
Unknown_Line_Type
  70
32
  10
1819148.41
  20
3215762.28
  30
3238
  0
VERTEX
  8
Unknown_Line_Type
  70
32
  10
1819151.35
  20
3215761.06
  30
3238
  0
VERTEX
  8
Unknown_Line_Type
  70
32
  10
1819154.42
  20
3215759.89
  30
3238
  0
VERTEX
  8
Unknown_Line_Type
  70
32
  10
1819157.13
  20
3215758.91
  30
3238
  0
VERTEX
  8
Unknown_Line_Type
  70
32
  10
1819158.39
  20
3215758.41
  30
3238
  0
VERTEX
  8
Unknown_Line_Type
  70
32
  10
1819159.36
  20
3215757.95
  30
3238
  0
VERTEX
  8
Unknown_Line_Type
  70
32
  10
1819160.32
  20
3215757.44
  30
3238
  0
VERTEX
  8
Unknown_Line_Type
  70
32
  10
1819161.79
  20
3215756.59
  30
3238
  0
VERTEX
  8
Unknown_Line_Type
  70
32
  10
1819163.24
  20
3215755.67
  30
3238
  0
VERTEX
  8
Unknown_Line_Type
  70
32
  10
1819164.69
  20
3215754.71
  30
3238
  0
VERTEX
  8
Unknown_Line_Type
  70
32
  10
1819173.11
  20
3215748.80
  30
3238
  0
VERTEX
  8
Unknown_Line_Type
  70
32
  10
1819175.64
  20
3215746.85
  30
3238
  0
VERTEX
  8
Unknown_Line_Type
  70
32
  10
1819177.86
  20
3215745.01
  30
3238
  0
VERTEX
  8
Unknown_Line_Type
  70
32
  10
1819180.77
  20
3215742.50
  30
3238
  0
VERTEX
  8
Unknown_Line_Type
  70
32
  10
1819182.09
  20
3215741.43
  30
3238
  0
VERTEX
  8
Unknown_Line_Type
  70
32
  10
1819183.54
  20
3215740.36
  30
3238
  0
VERTEX
  8
Unknown_Line_Type
  70
32
  10
1819185.06
  20
3215739.37
  30
3238
  0
VERTEX
  8
Unknown_Line_Type
  70
32
  10
1819186.62
  20
3215738.45
  30
3238
  0
VERTEX
  8
Unknown_Line_Type
  70
32
  10
1819188.37
  20
3215737.55
  30
3238
  0
VERTEX
  8
Unknown_Line_Type
  70
32
  10
1819190.17
  20
3215736.73
  30
3238
  0
VERTEX
  8
Unknown_Line_Type
  70
32
  10
1819191.99
  20
3215735.99
  30
3238
  0
VERTEX
  8
Unknown_Line_Type
  70
32
  10
1819193.84
  20
3215735.31
  30
3238
  0
VERTEX
  8
Unknown_Line_Type
  70
32
  10
1819195.71
  20
3215734.67
  30
3238
  0
VERTEX
  8
Unknown_Line_Type
  70
32
  10
1819197.60
  20
3215734.09
  30
3238
  0
VERTEX
  8
Unknown_Line_Type
  70
32
  10
1819199.28
  20
3215733.61
  30
3238
  0
VERTEX
  8
Unknown_Line_Type
  70
32
  10
1819200.96
  20
3215733.18
  30
3238
  0
VERTEX
  8
Unknown_Line_Type
  70
32
  10
1819202.66
  20
3215732.79
  30
3238
  0
VERTEX
  8
Unknown_Line_Type
  70
32
  10
1819204.36
  20
3215732.45
  30
3238
  0
VERTEX
  8
Unknown_Line_Type
  70
32
  10
1819206.07
  20
3215732.17
  30
3238
  0
VERTEX
  8
Unknown_Line_Type
  70
32
  10
1819207.70
  20
3215731.98
  30
3238
  0
VERTEX
  8
Unknown_Line_Type
  70
32
  10
1819209.33
  20
3215731.85
  30
3238
  0
VERTEX
  8
Unknown_Line_Type
  70
32
  10
1819210.96
  20
3215731.79
  30
3238
  0
VERTEX
  8
Unknown_Line_Type
  70
32
  10
1819212.59
  20
3215731.79
  30
3238
  0
VERTEX
  8
Unknown_Line_Type
  70
32
  10
1819214.18
  20
3215731.86
  30
3238
  0
VERTEX
  8
Unknown_Line_Type
  70
32
  10
1819215.76
  20
3215732.00
  30
3238
  0
VERTEX
  8
Unknown_Line_Type
  70
32
  10
1819217.33
  20
3215732.20
  30
3238
  0
VERTEX
  8
Unknown_Line_Type
  70
32
  10
1819218.88
  20
3215732.47
  30
3238
  0
VERTEX
  8
Unknown_Line_Type
  70
32
  10
1819220.41
  20
3215732.82
  30
3238
  0
VERTEX
  8
Unknown_Line_Type
  70
32
  10
1819222.14
  20
3215733.33
  30
3238
  0
VERTEX
  8
Unknown_Line_Type
  70
32
  10
1819223.82
  20
3215733.96
  30
3238
  0
VERTEX
  8
Unknown_Line_Type
  70
32
  10
1819225.42
  20
3215734.74
  30
3238
  0
VERTEX
  8
Unknown_Line_Type
  70
32
  10
1819226.98
  20
3215735.69
  30
3238
  0
VERTEX
  8
Unknown_Line_Type
  70
32
  10
1819228.45
  20
3215736.78
  30
3238
  0
VERTEX
  8
Unknown_Line_Type
  70
32
  10
1819229.86
  20
3215737.98
  30
3238
  0
VERTEX
  8
Unknown_Line_Type
  70
32
  10
1819231.00
  20
3215739.04
  30
3238
  0
VERTEX
  8
Unknown_Line_Type
  70
32
  10
1819232.11
  20
3215740.13
  30
3238
  0
VERTEX
  8
Unknown_Line_Type
  70
32
  10
1819235.45
  20
3215743.60
  30
3238
  0
VERTEX
  8
Unknown_Line_Type
  70
32
  10
1819236.61
  20
3215744.74
  30
3238
  0
VERTEX
  8
Unknown_Line_Type
  70
32
  10
1819238.05
  20
3215746.03
  30
3238
  0
VERTEX
  8
Unknown_Line_Type
  70
32
  10
1819239.54
  20
3215747.27
  30
3238
  0
VERTEX
  8
Unknown_Line_Type
  70
32
  10
1819241.07
  20
3215748.46
  30
3238
  0
VERTEX
  8
Unknown_Line_Type
  70
32
  10
1819245.74
  20
3215751.92
  30
3238
  0
VERTEX
  8
Unknown_Line_Type
  70
32
  10
1819246.89
  20
3215752.88
  30
3238
  0
VERTEX
  8
Unknown_Line_Type
  70
32
  10
1819248.08
  20
3215753.95
  30
3238
  0
VERTEX
  8
Unknown_Line_Type
  70
32
  10
1819249.26
  20
3215755.14
  30
3238
  0
VERTEX
  8
Unknown_Line_Type
  70
32
  10
1819250.33
  20
3215756.33
  30
3238
  0
VERTEX
  8
Unknown_Line_Type
  70
32
  10
1819251.35
  20
3215757.59
  30
3238
  0
VERTEX
  8
Unknown_Line_Type
  70
32
  10
1819252.17
  20
3215758.70
  30
3238
  0
VERTEX
  8
Unknown_Line_Type
  70
32
  10
1819252.94
  20
3215759.81
  30
3238
  0
VERTEX
  8
Unknown_Line_Type
  70
32
  10
1819253.97
  20
3215761.42
  30
3238
  0
VERTEX
  8
Unknown_Line_Type
  70
32
  10
1819254.87
  20
3215762.92
  30
3238
  0
VERTEX
  8
Unknown_Line_Type
  70
32
  10
1819256.85
  20
3215766.43
  30
3238
  0
SEQEND
  8
Unknown_Line_Type
  0
POLYLINE
  8
Unknown_Line_Type
  70
8
  66
1
 62
0
 39
0
  0
VERTEX
  8
Unknown_Line_Type
  70
32
  10
1819253.14
  20
3215770.39
  30
3240
  0
VERTEX
  8
Unknown_Line_Type
  70
32
  10
1819253.16
  20
3215770.31
  30
3240
  0
VERTEX
  8
Unknown_Line_Type
  70
32
  10
1819253.07
  20
3215770.00
  30
3240
  0
VERTEX
  8
Unknown_Line_Type
  70
32
  10
1819252.92
  20
3215769.63
  30
3240
  0
VERTEX
  8
Unknown_Line_Type
  70
32
  10
1819252.34
  20
3215768.44
  30
3240
  0
VERTEX
  8
Unknown_Line_Type
  70
32
  10
1819251.43
  20
3215766.87
  30
3240
  0
VERTEX
  8
Unknown_Line_Type
  70
32
  10
1819250.38
  20
3215765.32
  30
3240
  0
VERTEX
  8
Unknown_Line_Type
  70
32
  10
1819249.14
  20
3215763.66
  30
3240
  0
VERTEX
  8
Unknown_Line_Type
  70
32
  10
1819247.74
  20
3215761.98
  30
3240
  0
VERTEX
  8
Unknown_Line_Type
  70
32
  10
1819246.20
  20
3215760.35
  30
3240
  0
VERTEX
  8
Unknown_Line_Type
  70
32
  10
1819245.00
  20
3215759.21
  30
3240
  0
VERTEX
  8
Unknown_Line_Type
  70
32
  10
1819243.78
  20
3215758.15
  30
3240
  0
VERTEX
  8
Unknown_Line_Type
  70
32
  10
1819242.29
  20
3215756.98
  30
3240
  0
VERTEX
  8
Unknown_Line_Type
  70
32
  10
1819240.87
  20
3215755.98
  30
3240
  0
VERTEX
  8
Unknown_Line_Type
  70
32
  10
1819236.36
  20
3215753.06
  30
3240
  0
VERTEX
  8
Unknown_Line_Type
  70
32
  10
1819225.30
  20
3215746.17
  30
3240
  0
VERTEX
  8
Unknown_Line_Type
  70
32
  10
1819223.85
  20
3215745.30
  30
3240
  0
VERTEX
  8
Unknown_Line_Type
  70
32
  10
1819222.38
  20
3215744.51
  30
3240
  0
VERTEX
  8
Unknown_Line_Type
  70
32
  10
1819220.68
  20
3215743.74
  30
3240
  0
VERTEX
  8
Unknown_Line_Type
  70
32
  10
1819218.95
  20
3215743.12
  30
3240
  0
VERTEX
  8
Unknown_Line_Type
  70
32
  10
1819217.19
  20
3215742.65
  30
3240
  0
VERTEX
  8
Unknown_Line_Type
  70
32
  10
1819215.65
  20
3215742.38
  30
3240
  0
VERTEX
  8
Unknown_Line_Type
  70
32
  10
1819214.12
  20
3215742.24
  30
3240
  0
VERTEX
  8
Unknown_Line_Type
  70
32
  10
1819212.60
  20
3215742.22
  30
3240
  0
VERTEX
  8
Unknown_Line_Type
  70
32
  10
1819211.10
  20
3215742.34
  30
3240
  0
VERTEX
  8
Unknown_Line_Type
  70
32
  10
1819209.46
  20
3215742.63
  30
3240
  0
VERTEX
  8
Unknown_Line_Type
  70
32
  10
1819207.81
  20
3215742.97
  30
3240
  0
VERTEX
  8
Unknown_Line_Type
  70
32
  10
1819204.41
  20
3215743.75
  30
3240
  0
VERTEX
  8
Unknown_Line_Type
  70
32
  10
1819202.69
  20
3215744.19
  30
3240
  0
VERTEX
  8
Unknown_Line_Type
  70
32
  10
1819200.95
  20
3215744.66
  30
3240
  0
VERTEX
  8
Unknown_Line_Type
  70
32
  10
1819197.84
  20
3215745.62
  30
3240
  0
VERTEX
  8
Unknown_Line_Type
  70
32
  10
1819194.75
  20
3215746.71
  30
3240
  0
VERTEX
  8
Unknown_Line_Type
  70
32
  10
1819193.22
  20
3215747.31
  30
3240
  0
VERTEX
  8
Unknown_Line_Type
  70
32
  10
1819190.44
  20
3215748.50
  30
3240
  0
VERTEX
  8
Unknown_Line_Type
  70
32
  10
1819184.73
  20
3215751.10
  30
3240
  0
VERTEX
  8
Unknown_Line_Type
  70
32
  10
1819181.89
  20
3215752.43
  30
3240
  0
VERTEX
  8
Unknown_Line_Type
  70
32
  10
1819180.37
  20
3215753.18
  30
3240
  0
VERTEX
  8
Unknown_Line_Type
  70
32
  10
1819178.42
  20
3215754.22
  30
3240
  0
VERTEX
  8
Unknown_Line_Type
  70
32
  10
1819177.01
  20
3215755.00
  30
3240
  0
VERTEX
  8
Unknown_Line_Type
  70
32
  10
1819174.24
  20
3215756.63
  30
3240
  0
VERTEX
  8
Unknown_Line_Type
  70
32
  10
1819171.38
  20
3215758.35
  30
3240
  0
VERTEX
  8
Unknown_Line_Type
  70
32
  10
1819169.89
  20
3215759.31
  30
3240
  0
VERTEX
  8
Unknown_Line_Type
  70
32
  10
1819168.43
  20
3215760.32
  30
3240
  0
VERTEX
  8
Unknown_Line_Type
  70
32
  10
1819161.68
  20
3215765.27
  30
3240
  0
VERTEX
  8
Unknown_Line_Type
  70
32
  10
1819159.85
  20
3215766.47
  30
3240
  0
VERTEX
  8
Unknown_Line_Type
  70
32
  10
1819158.95
  20
3215767.00
  30
3240
  0
VERTEX
  8
Unknown_Line_Type
  70
32
  10
1819158.04
  20
3215767.50
  30
3240
  0
VERTEX
  8
Unknown_Line_Type
  70
32
  10
1819156.56
  20
3215768.25
  30
3240
  0
VERTEX
  8
Unknown_Line_Type
  70
32
  10
1819155.06
  20
3215768.95
  30
3240
  0
VERTEX
  8
Unknown_Line_Type
  70
32
  10
1819153.53
  20
3215769.62
  30
3240
  0
VERTEX
  8
Unknown_Line_Type
  70
32
  10
1819150.48
  20
3215770.87
  30
3240
  0
VERTEX
  8
Unknown_Line_Type
  70
32
  10
1819144.23
  20
3215773.30
  30
3240
  0
VERTEX
  8
Unknown_Line_Type
  70
32
  10
1819142.56
  20
3215774.03
  30
3240
  0
VERTEX
  8
Unknown_Line_Type
  70
32
  10
1819141.12
  20
3215774.78
  30
3240
  0
VERTEX
  8
Unknown_Line_Type
  70
32
  10
1819139.71
  20
3215775.61
  30
3240
  0
VERTEX
  8
Unknown_Line_Type
  70
32
  10
1819138.34
  20
3215776.50
  30
3240
  0
VERTEX
  8
Unknown_Line_Type
  70
32
  10
1819135.63
  20
3215778.39
  30
3240
  0
VERTEX
  8
Unknown_Line_Type
  70
32
  10
1819133.13
  20
3215780.21
  30
3240
  0
VERTEX
  8
Unknown_Line_Type
  70
32
  10
1819130.86
  20
3215781.93
  30
3240
  0
VERTEX
  8
Unknown_Line_Type
  70
32
  10
1819129.36
  20
3215783.18
  30
3240
  0
VERTEX
  8
Unknown_Line_Type
  70
32
  10
1819127.90
  20
3215784.48
  30
3240
  0
VERTEX
  8
Unknown_Line_Type
  70
32
  10
1819126.47
  20
3215785.82
  30
3240
  0
VERTEX
  8
Unknown_Line_Type
  70
32
  10
1819125.07
  20
3215787.19
  30
3240
  0
VERTEX
  8
Unknown_Line_Type
  70
32
  10
1819120.43
  20
3215791.90
  30
3240
  0
VERTEX
  8
Unknown_Line_Type
  70
32
  10
1819119.06
  20
3215793.20
  30
3240
  0
VERTEX
  8
Unknown_Line_Type
  70
32
  10
1819117.66
  20
3215794.47
  30
3240
  0
VERTEX
  8
Unknown_Line_Type
  70
32
  10
1819114.94
  20
3215796.79
  30
3240
  0
VERTEX
  8
Unknown_Line_Type
  70
32
  10
1819113.55
  20
3215797.91
  30
3240
  0
VERTEX
  8
Unknown_Line_Type
  70
32
  10
1819112.13
  20
3215798.99
  30
3240
  0
VERTEX
  8
Unknown_Line_Type
  70
32
  10
1819110.68
  20
3215800.03
  30
3240
  0
VERTEX
  8
Unknown_Line_Type
  70
32
  10
1819106.73
  20
3215802.65
  30
3240
  0
VERTEX
  8
Unknown_Line_Type
  70
32
  10
1819105.15
  20
3215803.72
  30
3240
  0
VERTEX
  8
Unknown_Line_Type
  70
32
  10
1819103.61
  20
3215804.83
  30
3240
  0
VERTEX
  8
Unknown_Line_Type
  70
32
  10
1819102.20
  20
3215805.90
  30
3240
  0
VERTEX
  8
Unknown_Line_Type
  70
32
  10
1819100.84
  20
3215807.03
  30
3240
  0
VERTEX
  8
Unknown_Line_Type
  70
32
  10
1819099.65
  20
3215808.08
  30
3240
  0
VERTEX
  8
Unknown_Line_Type
  70
32
  10
1819098.50
  20
3215809.18
  30
3240
  0
VERTEX
  8
Unknown_Line_Type
  70
32
  10
1819097.38
  20
3215810.31
  30
3240
  0
VERTEX
  8
Unknown_Line_Type
  70
32
  10
1819095.37
  20
3215812.51
  30
3240
  0
VERTEX
  8
Unknown_Line_Type
  70
32
  10
1819092.20
  20
3215816.19
  30
3240
  0
VERTEX
  8
Unknown_Line_Type
  70
32
  10
1819091.12
  20
3215817.37
  30
3240
  0
VERTEX
  8
Unknown_Line_Type
  70
32
  10
1819090.15
  20
3215818.38
  30
3240
  0
VERTEX
  8
Unknown_Line_Type
  70
32
  10
1819089.12
  20
3215819.34
  30
3240
  0
VERTEX
  8
Unknown_Line_Type
  70
32
  10
1819087.76
  20
3215820.43
  30
3240
  0
VERTEX
  8
Unknown_Line_Type
  70
32
  10
1819086.31
  20
3215821.41
  30
3240
  0
VERTEX
  8
Unknown_Line_Type
  70
32
  10
1819084.79
  20
3215822.29
  30
3240
  0
VERTEX
  8
Unknown_Line_Type
  70
32
  10
1819083.21
  20
3215823.05
  30
3240
  0
VERTEX
  8
Unknown_Line_Type
  70
32
  10
1819081.48
  20
3215823.74
  30
3240
  0
VERTEX
  8
Unknown_Line_Type
  70
32
  10
1819079.71
  20
3215824.30
  30
3240
  0
VERTEX
  8
Unknown_Line_Type
  70
32
  10
1819077.90
  20
3215824.76
  30
3240
  0
VERTEX
  8
Unknown_Line_Type
  70
32
  10
1819076.05
  20
3215825.09
  30
3240
  0
VERTEX
  8
Unknown_Line_Type
  70
32
  10
1819074.50
  20
3215825.27
  30
3240
  0
VERTEX
  8
Unknown_Line_Type
  70
32
  10
1819072.93
  20
3215825.37
  30
3240
  0
VERTEX
  8
Unknown_Line_Type
  70
32
  10
1819071.31
  20
3215825.44
  30
3240
  0
VERTEX
  8
Unknown_Line_Type
  70
32
  10
1819069.68
  20
3215825.45
  30
3240
  0
VERTEX
  8
Unknown_Line_Type
  70
32
  10
1819068.06
  20
3215825.42
  30
3240
  0
VERTEX
  8
Unknown_Line_Type
  70
32
  10
1819066.43
  20
3215825.34
  30
3240
  0
VERTEX
  8
Unknown_Line_Type
  70
32
  10
1819065.05
  20
3215825.23
  30
3240
  0
VERTEX
  8
Unknown_Line_Type
  70
32
  10
1819059.05
  20
3215824.60
  30
3240
  0
VERTEX
  8
Unknown_Line_Type
  70
32
  10
1819057.48
  20
3215824.51
  30
3240
  0
VERTEX
  8
Unknown_Line_Type
  70
32
  10
1819055.92
  20
3215824.47
  30
3240
  0
VERTEX
  8
Unknown_Line_Type
  70
32
  10
1819054.37
  20
3215824.49
  30
3240
  0
VERTEX
  8
Unknown_Line_Type
  70
32
  10
1819052.82
  20
3215824.57
  30
3240
  0
VERTEX
  8
Unknown_Line_Type
  70
32
  10
1819049.80
  20
3215824.81
  30
3240
  0
VERTEX
  8
Unknown_Line_Type
  70
32
  10
1819048.04
  20
3215824.90
  30
3240
  0
VERTEX
  8
Unknown_Line_Type
  70
32
  10
1819046.28
  20
3215824.92
  30
3240
  0
VERTEX
  8
Unknown_Line_Type
  70
32
  10
1819044.53
  20
3215824.83
  30
3240
  0
VERTEX
  8
Unknown_Line_Type
  70
32
  10
1819042.79
  20
3215824.61
  30
3240
  0
VERTEX
  8
Unknown_Line_Type
  70
32
  10
1819041.16
  20
3215824.26
  30
3240
  0
VERTEX
  8
Unknown_Line_Type
  70
32
  10
1819039.55
  20
3215823.78
  30
3240
  0
VERTEX
  8
Unknown_Line_Type
  70
32
  10
1819037.97
  20
3215823.20
  30
3240
  0
VERTEX
  8
Unknown_Line_Type
  70
32
  10
1819036.74
  20
3215822.67
  30
3240
  0
VERTEX
  8
Unknown_Line_Type
  70
32
  10
1819035.53
  20
3215822.10
  30
3240
  0
VERTEX
  8
Unknown_Line_Type
  70
32
  10
1819032.72
  20
3215820.66
  30
3240
  0
VERTEX
  8
Unknown_Line_Type
  70
32
  10
1819031.13
  20
3215819.79
  30
3240
  0
VERTEX
  8
Unknown_Line_Type
  70
32
  10
1819029.57
  20
3215818.87
  30
3240
  0
VERTEX
  8
Unknown_Line_Type
  70
32
  10
1819028.06
  20
3215817.88
  30
3240
  0
VERTEX
  8
Unknown_Line_Type
  70
32
  10
1819026.74
  20
3215816.90
  30
3240
  0
VERTEX
  8
Unknown_Line_Type
  70
32
  10
1819025.46
  20
3215815.87
  30
3240
  0
VERTEX
  8
Unknown_Line_Type
  70
32
  10
1819021.71
  20
3215812.56
  30
3240
  0
VERTEX
  8
Unknown_Line_Type
  70
32
  10
1819020.39
  20
3215811.54
  30
3240
  0
VERTEX
  8
Unknown_Line_Type
  70
32
  10
1819018.98
  20
3215810.64
  30
3240
  0
VERTEX
  8
Unknown_Line_Type
  70
32
  10
1819017.48
  20
3215809.85
  30
3240
  0
VERTEX
  8
Unknown_Line_Type
  70
32
  10
1819015.92
  20
3215809.14
  30
3240
  0
VERTEX
  8
Unknown_Line_Type
  70
32
  10
1819014.31
  20
3215808.50
  30
3240
  0
VERTEX
  8
Unknown_Line_Type
  70
32
  10
1819012.67
  20
3215807.90
  30
3240
  0
VERTEX
  8
Unknown_Line_Type
  70
32
  10
1819006.44
  20
3215805.85
  30
3240
  0
VERTEX
  8
Unknown_Line_Type
  70
32
  10
1819003.02
  20
3215804.62
  30
3240
  0
VERTEX
  8
Unknown_Line_Type
  70
32
  10
1819000.03
  20
3215803.45
  30
3240
  0
VERTEX
  8
Unknown_Line_Type
  70
32
  10
1818995.51
  20
3215801.59
  30
3240
  0
VERTEX
  8
Unknown_Line_Type
  70
32
  10
1818993.98
  20
3215800.91
  30
3240
  0
VERTEX
  8
Unknown_Line_Type
  70
32
  10
1818992.54
  20
3215800.15
  30
3240
  0
VERTEX
  8
Unknown_Line_Type
  70
32
  10
1818991.28
  20
3215799.32
  30
3240
  0
VERTEX
  8
Unknown_Line_Type
  70
32
  10
1818990.20
  20
3215798.36
  30
3240
  0
VERTEX
  8
Unknown_Line_Type
  70
32
  10
1818989.35
  20
3215797.26
  30
3240
  0
VERTEX
  8
Unknown_Line_Type
  70
32
  10
1818988.86
  20
3215796.26
  30
3240
  0
VERTEX
  8
Unknown_Line_Type
  70
32
  10
1818988.53
  20
3215795.16
  30
3240
  0
VERTEX
  8
Unknown_Line_Type
  70
32
  10
1818988.32
  20
3215793.98
  30
3240
  0
VERTEX
  8
Unknown_Line_Type
  70
32
  10
1818988.20
  20
3215792.76
  30
3240
  0
VERTEX
  8
Unknown_Line_Type
  70
32
  10
1818988.15
  20
3215791.48
  30
3240
  0
VERTEX
  8
Unknown_Line_Type
  70
32
  10
1818988.15
  20
3215790.19
  30
3240
  0
VERTEX
  8
Unknown_Line_Type
  70
32
  10
1818988.25
  20
3215787.24
  30
3240
  0
VERTEX
  8
Unknown_Line_Type
  70
32
  10
1818988.22
  20
3215785.80
  30
3240
  0
VERTEX
  8
Unknown_Line_Type
  70
32
  10
1818988.03
  20
3215784.39
  30
3240
  0
VERTEX
  8
Unknown_Line_Type
  70
32
  10
1818987.60
  20
3215782.98
  30
3240
  0
VERTEX
  8
Unknown_Line_Type
  70
32
  10
1818986.97
  20
3215781.62
  30
3240
  0
VERTEX
  8
Unknown_Line_Type
  70
32
  10
1818986.17
  20
3215780.30
  30
3240
  0
VERTEX
  8
Unknown_Line_Type
  70
32
  10
1818985.24
  20
3215779.01
  30
3240
  0
VERTEX
  8
Unknown_Line_Type
  70
32
  10
1818984.20
  20
3215777.77
  30
3240
  0
VERTEX
  8
Unknown_Line_Type
  70
32
  10
1818982.90
  20
3215776.41
  30
3240
  0
VERTEX
  8
Unknown_Line_Type
  70
32
  10
1818981.53
  20
3215775.08
  30
3240
  0
VERTEX
  8
Unknown_Line_Type
  70
32
  10
1818980.10
  20
3215773.77
  30
3240
  0
VERTEX
  8
Unknown_Line_Type
  70
32
  10
1818975.29
  20
3215769.42
  30
3240
  0
VERTEX
  8
Unknown_Line_Type
  70
32
  10
1818970.68
  20
3215765.44
  30
3240
  0
VERTEX
  8
Unknown_Line_Type
  70
32
  10
1818968.32
  20
3215763.32
  30
3240
  0
VERTEX
  8
Unknown_Line_Type
  70
32
  10
1818966.18
  20
3215761.21
  30
3240
  0
VERTEX
  8
Unknown_Line_Type
  70
32
  10
1818965.26
  20
3215760.21
  30
3240
  0
VERTEX
  8
Unknown_Line_Type
  70
32
  10
1818964.20
  20
3215758.81
  30
3240
  0
VERTEX
  8
Unknown_Line_Type
  70
32
  10
1818963.15
  20
3215757.17
  30
3240
  0
VERTEX
  8
Unknown_Line_Type
  70
32
  10
1818962.16
  20
3215755.34
  30
3240
  0
VERTEX
  8
Unknown_Line_Type
  70
32
  10
1818961.24
  20
3215753.40
  30
3240
  0
VERTEX
  8
Unknown_Line_Type
  70
32
  10
1818960.48
  20
3215751.55
  30
3240
  0
VERTEX
  8
Unknown_Line_Type
  70
32
  10
1818959.81
  20
3215749.72
  30
3240
  0
VERTEX
  8
Unknown_Line_Type
  70
32
  10
1818959.24
  20
3215747.97
  30
3240
  0
VERTEX
  8
Unknown_Line_Type
  70
32
  10
1818958.70
  20
3215746.02
  30
3240
  0
VERTEX
  8
Unknown_Line_Type
  70
32
  10
1818958.31
  20
3215744.38
  30
3240
  0
VERTEX
  8
Unknown_Line_Type
  70
32
  10
1818958.08
  20
3215743.16
  30
3240
  0
VERTEX
  8
Unknown_Line_Type
  70
32
  10
1818958.00
  20
3215742.37
  30
3240
  0
SEQEND
  8
Unknown_Line_Type
  0
POLYLINE
  8
Unknown_Line_Type
  70
8
  66
1
 62
0
 39
0
  0
VERTEX
  8
Unknown_Line_Type
  70
32
  10
1818958.00
  20
3215741.68
  30
3240
  0
VERTEX
  8
Unknown_Line_Type
  70
32
  10
1818960.11
  20
3215739.12
  30
3240
  0
VERTEX
  8
Unknown_Line_Type
  70
32
  10
1818960.51
  20
3215738.58
  30
3240
  0
VERTEX
  8
Unknown_Line_Type
  70
32
  10
1818960.86
  20
3215738.02
  30
3240
  0
VERTEX
  8
Unknown_Line_Type
  70
32
  10
1818961.47
  20
3215736.84
  30
3240
  0
VERTEX
  8
Unknown_Line_Type
  70
32
  10
1818962.14
  20
3215735.34
  30
3240
  0
VERTEX
  8
Unknown_Line_Type
  70
32
  10
1818962.46
  20
3215734.44
  30
3240
  0
VERTEX
  8
Unknown_Line_Type
  70
32
  10
1818962.57
  20
3215733.86
  30
3240
  0
VERTEX
  8
Unknown_Line_Type
  70
32
  10
1818962.56
  20
3215733.57
  30
3240
  0
VERTEX
  8
Unknown_Line_Type
  70
32
  10
1818962.50
  20
3215733.29
  30
3240
  0
VERTEX
  8
Unknown_Line_Type
  70
32
  10
1818962.40
  20
3215733.01
  30
3240
  0
VERTEX
  8
Unknown_Line_Type
  70
32
  10
1818961.94
  20
3215732.20
  30
3240
  0
VERTEX
  8
Unknown_Line_Type
  70
32
  10
1818961.36
  20
3215731.41
  30
3240
  0
VERTEX
  8
Unknown_Line_Type
  70
32
  10
1818960.33
  20
3215730.09
  30
3240
  0
VERTEX
  8
Unknown_Line_Type
  70
32
  10
1818958.00
  20
3215727.25
  30
3240
  0
SEQEND
  8
Unknown_Line_Type
  0
POLYLINE
  8
Unknown_Line_Type
  70
8
  66
1
 62
0
 39
0
  0
VERTEX
  8
Unknown_Line_Type
  70
32
  10
1819246.76
  20
3215777.22
  30
3242
  0
VERTEX
  8
Unknown_Line_Type
  70
32
  10
1819245.73
  20
3215775.18
  30
3242
  0
VERTEX
  8
Unknown_Line_Type
  70
32
  10
1819244.88
  20
3215773.76
  30
3242
  0
VERTEX
  8
Unknown_Line_Type
  70
32
  10
1819243.78
  20
3215772.14
  30
3242
  0
VERTEX
  8
Unknown_Line_Type
  70
32
  10
1819242.45
  20
3215770.41
  30
3242
  0
VERTEX
  8
Unknown_Line_Type
  70
32
  10
1819241.35
  20
3215769.11
  30
3242
  0
VERTEX
  8
Unknown_Line_Type
  70
32
  10
1819240.17
  20
3215767.84
  30
3242
  0
VERTEX
  8
Unknown_Line_Type
  70
32
  10
1819238.77
  20
3215766.45
  30
3242
  0
VERTEX
  8
Unknown_Line_Type
  70
32
  10
1819237.35
  20
3215765.15
  30
3242
  0
VERTEX
  8
Unknown_Line_Type
  70
32
  10
1819235.95
  20
3215763.98
  30
3242
  0
VERTEX
  8
Unknown_Line_Type
  70
32
  10
1819234.61
  20
3215762.94
  30
3242
  0
VERTEX
  8
Unknown_Line_Type
  70
32
  10
1819233.20
  20
3215761.94
  30
3242
  0
VERTEX
  8
Unknown_Line_Type
  70
32
  10
1819231.77
  20
3215760.99
  30
3242
  0
VERTEX
  8
Unknown_Line_Type
  70
32
  10
1819230.32
  20
3215760.08
  30
3242
  0
VERTEX
  8
Unknown_Line_Type
  70
32
  10
1819228.75
  20
3215759.18
  30
3242
  0
VERTEX
  8
Unknown_Line_Type
  70
32
  10
1819227.15
  20
3215758.35
  30
3242
  0
VERTEX
  8
Unknown_Line_Type
  70
32
  10
1819225.53
  20
3215757.58
  30
3242
  0
VERTEX
  8
Unknown_Line_Type
  70
32
  10
1819223.88
  20
3215756.89
  30
3242
  0
VERTEX
  8
Unknown_Line_Type
  70
32
  10
1819222.21
  20
3215756.29
  30
3242
  0
VERTEX
  8
Unknown_Line_Type
  70
32
  10
1819220.50
  20
3215755.80
  30
3242
  0
VERTEX
  8
Unknown_Line_Type
  70
32
  10
1819219.08
  20
3215755.50
  30
3242
  0
VERTEX
  8
Unknown_Line_Type
  70
32
  10
1819217.63
  20
3215755.28
  30
3242
  0
VERTEX
  8
Unknown_Line_Type
  70
32
  10
1819216.17
  20
3215755.13
  30
3242
  0
VERTEX
  8
Unknown_Line_Type
  70
32
  10
1819214.36
  20
3215755.02
  30
3242
  0
VERTEX
  8
Unknown_Line_Type
  70
32
  10
1819212.54
  20
3215755.00
  30
3242
  0
VERTEX
  8
Unknown_Line_Type
  70
32
  10
1819210.72
  20
3215755.05
  30
3242
  0
VERTEX
  8
Unknown_Line_Type
  70
32
  10
1819208.89
  20
3215755.18
  30
3242
  0
VERTEX
  8
Unknown_Line_Type
  70
32
  10
1819207.05
  20
3215755.37
  30
3242
  0
VERTEX
  8
Unknown_Line_Type
  70
32
  10
1819203.39
  20
3215755.86
  30
3242
  0
VERTEX
  8
Unknown_Line_Type
  70
32
  10
1819199.91
  20
3215756.38
  30
3242
  0
VERTEX
  8
Unknown_Line_Type
  70
32
  10
1819196.65
  20
3215756.94
  30
3242
  0
VERTEX
  8
Unknown_Line_Type
  70
32
  10
1819195.03
  20
3215757.25
  30
3242
  0
VERTEX
  8
Unknown_Line_Type
  70
32
  10
1819193.42
  20
3215757.62
  30
3242
  0
VERTEX
  8
Unknown_Line_Type
  70
32
  10
1819191.79
  20
3215758.05
  30
3242
  0
VERTEX
  8
Unknown_Line_Type
  70
32
  10
1819190.17
  20
3215758.53
  30
3242
  0
VERTEX
  8
Unknown_Line_Type
  70
32
  10
1819188.34
  20
3215759.14
  30
3242
  0
VERTEX
  8
Unknown_Line_Type
  70
32
  10
1819186.52
  20
3215759.80
  30
3242
  0
VERTEX
  8
Unknown_Line_Type
  70
32
  10
1819182.93
  20
3215761.21
  30
3242
  0
VERTEX
  8
Unknown_Line_Type
  70
32
  10
1819175.15
  20
3215764.52
  30
3242
  0
VERTEX
  8
Unknown_Line_Type
  70
32
  10
1819173.63
  20
3215765.25
  30
3242
  0
VERTEX
  8
Unknown_Line_Type
  70
32
  10
1819172.34
  20
3215765.96
  30
3242
  0
VERTEX
  8
Unknown_Line_Type
  70
32
  10
1819171.08
  20
3215766.73
  30
3242
  0
VERTEX
  8
Unknown_Line_Type
  70
32
  10
1819165.97
  20
3215770.18
  30
3242
  0
VERTEX
  8
Unknown_Line_Type
  70
32
  10
1819163.38
  20
3215771.87
  30
3242
  0
VERTEX
  8
Unknown_Line_Type
  70
32
  10
1819162.09
  20
3215772.68
  30
3242
  0
VERTEX
  8
Unknown_Line_Type
  70
32
  10
1819159.78
  20
3215774.01
  30
3242
  0
VERTEX
  8
Unknown_Line_Type
  70
32
  10
1819158.26
  20
3215774.81
  30
3242
  0
VERTEX
  8
Unknown_Line_Type
  70
32
  10
1819155.19
  20
3215776.32
  30
3242
  0
VERTEX
  8
Unknown_Line_Type
  70
32
  10
1819150.51
  20
3215778.55
  30
3242
  0
VERTEX
  8
Unknown_Line_Type
  70
32
  10
1819148.89
  20
3215779.28
  30
3242
  0
VERTEX
  8
Unknown_Line_Type
  70
32
  10
1819147.25
  20
3215779.92
  30
3242
  0
VERTEX
  8
Unknown_Line_Type
  70
32
  10
1819142.41
  20
3215781.67
  30
3242
  0
VERTEX
  8
Unknown_Line_Type
  70
32
  10
1819140.90
  20
3215782.32
  30
3242
  0
VERTEX
  8
Unknown_Line_Type
  70
32
  10
1819139.42
  20
3215783.10
  30
3242
  0
VERTEX
  8
Unknown_Line_Type
  70
32
  10
1819138.00
  20
3215783.97
  30
3242
  0
VERTEX
  8
Unknown_Line_Type
  70
32
  10
1819136.81
  20
3215784.79
  30
3242
  0
VERTEX
  8
Unknown_Line_Type
  70
32
  10
1819135.77
  20
3215785.59
  30
3242
  0
VERTEX
  8
Unknown_Line_Type
  70
32
  10
1819134.75
  20
3215786.44
  30
3242
  0
VERTEX
  8
Unknown_Line_Type
  70
32
  10
1819133.38
  20
3215787.70
  30
3242
  0
VERTEX
  8
Unknown_Line_Type
  70
32
  10
1819132.06
  20
3215789.01
  30
3242
  0
VERTEX
  8
Unknown_Line_Type
  70
32
  10
1819130.78
  20
3215790.38
  30
3242
  0
VERTEX
  8
Unknown_Line_Type
  70
32
  10
1819129.55
  20
3215791.78
  30
3242
  0
VERTEX
  8
Unknown_Line_Type
  70
32
  10
1819128.37
  20
3215793.22
  30
3242
  0
VERTEX
  8
Unknown_Line_Type
  70
32
  10
1819126.66
  20
3215795.41
  30
3242
  0
VERTEX
  8
Unknown_Line_Type
  70
32
  10
1819125.65
  20
3215796.62
  30
3242
  0
VERTEX
  8
Unknown_Line_Type
  70
32
  10
1819124.61
  20
3215797.81
  30
3242
  0
VERTEX
  8
Unknown_Line_Type
  70
32
  10
1819123.54
  20
3215798.98
  30
3242
  0
VERTEX
  8
Unknown_Line_Type
  70
32
  10
1819121.38
  20
3215801.25
  30
3242
  0
VERTEX
  8
Unknown_Line_Type
  70
32
  10
1819120.29
  20
3215802.34
  30
3242
  0
VERTEX
  8
Unknown_Line_Type
  70
32
  10
1819119.15
  20
3215803.38
  30
3242
  0
VERTEX
  8
Unknown_Line_Type
  70
32
  10
1819117.96
  20
3215804.34
  30
3242
  0
VERTEX
  8
Unknown_Line_Type
  70
32
  10
1819116.77
  20
3215805.18
  30
3242
  0
VERTEX
  8
Unknown_Line_Type
  70
32
  10
1819115.54
  20
3215805.95
  30
3242
  0
VERTEX
  8
Unknown_Line_Type
  70
32
  10
1819109.75
  20
3215809.25
  30
3242
  0
VERTEX
  8
Unknown_Line_Type
  70
32
  10
1819108.18
  20
3215810.23
  30
3242
  0
VERTEX
  8
Unknown_Line_Type
  70
32
  10
1819106.94
  20
3215811.07
  30
3242
  0
VERTEX
  8
Unknown_Line_Type
  70
32
  10
1819105.58
  20
3215812.12
  30
3242
  0
VERTEX
  8
Unknown_Line_Type
  70
32
  10
1819104.28
  20
3215813.24
  30
3242
  0
VERTEX
  8
Unknown_Line_Type
  70
32
  10
1819103.04
  20
3215814.43
  30
3242
  0
VERTEX
  8
Unknown_Line_Type
  70
32
  10
1819102.12
  20
3215815.40
  30
3242
  0
VERTEX
  8
Unknown_Line_Type
  70
32
  10
1819101.24
  20
3215816.39
  30
3242
  0
VERTEX
  8
Unknown_Line_Type
  70
32
  10
1819100.39
  20
3215817.42
  30
3242
  0
VERTEX
  8
Unknown_Line_Type
  70
32
  10
1819099.58
  20
3215818.46
  30
3242
  0
VERTEX
  8
Unknown_Line_Type
  70
32
  10
1819098.80
  20
3215819.52
  30
3242
  0
VERTEX
  8
Unknown_Line_Type
  70
32
  10
1819097.69
  20
3215821.12
  30
3242
  0
VERTEX
  8
Unknown_Line_Type
  70
32
  10
1819095.50
  20
3215824.34
  30
3242
  0
VERTEX
  8
Unknown_Line_Type
  70
32
  10
1819094.37
  20
3215825.91
  30
3242
  0
VERTEX
  8
Unknown_Line_Type
  70
32
  10
1819093.18
  20
3215827.41
  30
3242
  0
VERTEX
  8
Unknown_Line_Type
  70
32
  10
1819091.90
  20
3215828.80
  30
3242
  0
VERTEX
  8
Unknown_Line_Type
  70
32
  10
1819090.68
  20
3215829.89
  30
3242
  0
VERTEX
  8
Unknown_Line_Type
  70
32
  10
1819089.39
  20
3215830.89
  30
3242
  0
VERTEX
  8
Unknown_Line_Type
  70
32
  10
1819088.02
  20
3215831.80
  30
3242
  0
VERTEX
  8
Unknown_Line_Type
  70
32
  10
1819086.60
  20
3215832.63
  30
3242
  0
VERTEX
  8
Unknown_Line_Type
  70
32
  10
1819085.13
  20
3215833.38
  30
3242
  0
VERTEX
  8
Unknown_Line_Type
  70
32
  10
1819083.72
  20
3215834.01
  30
3242
  0
VERTEX
  8
Unknown_Line_Type
  70
32
  10
1819082.28
  20
3215834.57
  30
3242
  0
VERTEX
  8
Unknown_Line_Type
  70
32
  10
1819080.81
  20
3215835.05
  30
3242
  0
VERTEX
  8
Unknown_Line_Type
  70
32
  10
1819079.31
  20
3215835.45
  30
3242
  0
VERTEX
  8
Unknown_Line_Type
  70
32
  10
1819077.60
  20
3215835.79
  30
3242
  0
VERTEX
  8
Unknown_Line_Type
  70
32
  10
1819075.87
  20
3215836.04
  30
3242
  0
VERTEX
  8
Unknown_Line_Type
  70
32
  10
1819074.12
  20
3215836.22
  30
3242
  0
VERTEX
  8
Unknown_Line_Type
  70
32
  10
1819072.69
  20
3215836.31
  30
3242
  0
VERTEX
  8
Unknown_Line_Type
  70
32
  10
1819071.25
  20
3215836.36
  30
3242
  0
VERTEX
  8
Unknown_Line_Type
  70
32
  10
1819069.72
  20
3215836.36
  30
3242
  0
VERTEX
  8
Unknown_Line_Type
  70
32
  10
1819068.19
  20
3215836.30
  30
3242
  0
VERTEX
  8
Unknown_Line_Type
  70
32
  10
1819060.58
  20
3215835.68
  30
3242
  0
VERTEX
  8
Unknown_Line_Type
  70
32
  10
1819055.57
  20
3215835.31
  30
3242
  0
VERTEX
  8
Unknown_Line_Type
  70
32
  10
1819053.70
  20
3215835.21
  30
3242
  0
VERTEX
  8
Unknown_Line_Type
  70
32
  10
1819051.07
  20
3215835.19
  30
3242
  0
VERTEX
  8
Unknown_Line_Type
  70
32
  10
1819043.80
  20
3215835.41
  30
3242
  0
VERTEX
  8
Unknown_Line_Type
  70
32
  10
1819041.98
  20
3215835.44
  30
3242
  0
VERTEX
  8
Unknown_Line_Type
  70
32
  10
1819040.01
  20
3215835.42
  30
3242
  0
VERTEX
  8
Unknown_Line_Type
  70
32
  10
1819038.04
  20
3215835.32
  30
3242
  0
VERTEX
  8
Unknown_Line_Type
  70
32
  10
1819036.09
  20
3215835.15
  30
3242
  0
VERTEX
  8
Unknown_Line_Type
  70
32
  10
1819034.15
  20
3215834.86
  30
3242
  0
VERTEX
  8
Unknown_Line_Type
  70
32
  10
1819032.36
  20
3215834.48
  30
3242
  0
VERTEX
  8
Unknown_Line_Type
  70
32
  10
1819030.59
  20
3215834.01
  30
3242
  0
VERTEX
  8
Unknown_Line_Type
  70
32
  10
1819028.83
  20
3215833.47
  30
3242
  0
VERTEX
  8
Unknown_Line_Type
  70
32
  10
1819027.08
  20
3215832.88
  30
3242
  0
VERTEX
  8
Unknown_Line_Type
  70
32
  10
1819025.56
  20
3215832.33
  30
3242
  0
VERTEX
  8
Unknown_Line_Type
  70
32
  10
1819022.55
  20
3215831.15
  30
3242
  0
VERTEX
  8
Unknown_Line_Type
  70
32
  10
1819019.39
  20
3215829.77
  30
3242
  0
VERTEX
  8
Unknown_Line_Type
  70
32
  10
1819017.74
  20
3215829.00
  30
3242
  0
VERTEX
  8
Unknown_Line_Type
  70
32
  10
1819012.71
  20
3215826.50
  30
3242
  0
VERTEX
  8
Unknown_Line_Type
  70
32
  10
1819010.98
  20
3215825.77
  30
3242
  0
VERTEX
  8
Unknown_Line_Type
  70
32
  10
1819009.45
  20
3215825.24
  30
3242
  0
VERTEX
  8
Unknown_Line_Type
  70
32
  10
1819007.88
  20
3215824.83
  30
3242
  0
VERTEX
  8
Unknown_Line_Type
  70
32
  10
1819006.29
  20
3215824.53
  30
3242
  0
VERTEX
  8
Unknown_Line_Type
  70
32
  10
1819004.43
  20
3215824.31
  30
3242
  0
VERTEX
  8
Unknown_Line_Type
  70
32
  10
1818998.85
  20
3215824.00
  30
3242
  0
VERTEX
  8
Unknown_Line_Type
  70
32
  10
1818997.20
  20
3215823.88
  30
3242
  0
VERTEX
  8
Unknown_Line_Type
  70
32
  10
1818995.58
  20
3215823.69
  30
3242
  0
VERTEX
  8
Unknown_Line_Type
  70
32
  10
1818994.00
  20
3215823.41
  30
3242
  0
VERTEX
  8
Unknown_Line_Type
  70
32
  10
1818992.47
  20
3215823.00
  30
3242
  0
VERTEX
  8
Unknown_Line_Type
  70
32
  10
1818990.80
  20
3215822.35
  30
3242
  0
VERTEX
  8
Unknown_Line_Type
  70
32
  10
1818989.21
  20
3215821.55
  30
3242
  0
VERTEX
  8
Unknown_Line_Type
  70
32
  10
1818986.67
  20
3215820.15
  30
3242
  0
VERTEX
  8
Unknown_Line_Type
  70
32
  10
1818985.12
  20
3215819.42
  30
3242
  0
VERTEX
  8
Unknown_Line_Type
  70
32
  10
1818983.49
  20
3215818.76
  30
3242
  0
VERTEX
  8
Unknown_Line_Type
  70
32
  10
1818975.43
  20
3215815.83
  30
3242
  0
VERTEX
  8
Unknown_Line_Type
  70
32
  10
1818972.31
  20
3215814.80
  30
3242
  0
VERTEX
  8
Unknown_Line_Type
  70
32
  10
1818968.83
  20
3215813.78
  30
3242
  0
VERTEX
  8
Unknown_Line_Type
  70
32
  10
1818967.21
  20
3215813.23
  30
3242
  0
VERTEX
  8
Unknown_Line_Type
  70
32
  10
1818966.02
  20
3215812.72
  30
3242
  0
VERTEX
  8
Unknown_Line_Type
  70
32
  10
1818964.94
  20
3215812.10
  30
3242
  0
VERTEX
  8
Unknown_Line_Type
  70
32
  10
1818964.03
  20
3215811.35
  30
3242
  0
VERTEX
  8
Unknown_Line_Type
  70
32
  10
1818963.37
  20
3215810.53
  30
3242
  0
VERTEX
  8
Unknown_Line_Type
  70
32
  10
1818962.84
  20
3215809.60
  30
3242
  0
VERTEX
  8
Unknown_Line_Type
  70
32
  10
1818962.40
  20
3215808.57
  30
3242
  0
VERTEX
  8
Unknown_Line_Type
  70
32
  10
1818961.91
  20
3215807.03
  30
3242
  0
VERTEX
  8
Unknown_Line_Type
  70
32
  10
1818961.54
  20
3215805.39
  30
3242
  0
VERTEX
  8
Unknown_Line_Type
  70
32
  10
1818961.28
  20
3215803.68
  30
3242
  0
VERTEX
  8
Unknown_Line_Type
  70
32
  10
1818961.14
  20
3215801.93
  30
3242
  0
VERTEX
  8
Unknown_Line_Type
  70
32
  10
1818961.17
  20
3215800.15
  30
3242
  0
VERTEX
  8
Unknown_Line_Type
  70
32
  10
1818961.67
  20
3215794.05
  30
3242
  0
VERTEX
  8
Unknown_Line_Type
  70
32
  10
1818961.69
  20
3215792.03
  30
3242
  0
VERTEX
  8
Unknown_Line_Type
  70
32
  10
1818961.48
  20
3215790.19
  30
3242
  0
VERTEX
  8
Unknown_Line_Type
  70
32
  10
1818961.00
  20
3215788.61
  30
3242
  0
VERTEX
  8
Unknown_Line_Type
  70
32
  10
1818960.34
  20
3215787.47
  30
3242
  0
VERTEX
  8
Unknown_Line_Type
  70
32
  10
1818959.57
  20
3215786.61
  30
3242
  0
VERTEX
  8
Unknown_Line_Type
  70
32
  10
1818958.83
  20
3215786.06
  30
3242
  0
VERTEX
  8
Unknown_Line_Type
  70
32
  10
1818958.25
  20
3215785.81
  30
3242
  0
VERTEX
  8
Unknown_Line_Type
  70
32
  10
1818958.00
  20
3215785.82
  30
3242
  0
SEQEND
  8
Unknown_Line_Type
  0
POLYLINE
  8
Unknown_Line_Type
  70
8
  66
1
 62
0
 39
0
  0
VERTEX
  8
Unknown_Line_Type
  70
32
  10
1818958.00
  20
3215827.67
  30
3244
  0
VERTEX
  8
Unknown_Line_Type
  70
32
  10
1818958.28
  20
3215827.66
  30
3244
  0
VERTEX
  8
Unknown_Line_Type
  70
32
  10
1818958.87
  20
3215827.79
  30
3244
  0
VERTEX
  8
Unknown_Line_Type
  70
32
  10
1818959.73
  20
3215828.02
  30
3244
  0
VERTEX
  8
Unknown_Line_Type
  70
32
  10
1818961.18
  20
3215828.49
  30
3244
  0
VERTEX
  8
Unknown_Line_Type
  70
32
  10
1818962.92
  20
3215829.12
  30
3244
  0
VERTEX
  8
Unknown_Line_Type
  70
32
  10
1818964.88
  20
3215829.90
  30
3244
  0
VERTEX
  8
Unknown_Line_Type
  70
32
  10
1818966.97
  20
3215830.78
  30
3244
  0
VERTEX
  8
Unknown_Line_Type
  70
32
  10
1818968.92
  20
3215831.65
  30
3244
  0
VERTEX
  8
Unknown_Line_Type
  70
32
  10
1818970.86
  20
3215832.57
  30
3244
  0
VERTEX
  8
Unknown_Line_Type
  70
32
  10
1818972.71
  20
3215833.49
  30
3244
  0
VERTEX
  8
Unknown_Line_Type
  70
32
  10
1818974.42
  20
3215834.40
  30
3244
  0
VERTEX
  8
Unknown_Line_Type
  70
32
  10
1818978.85
  20
3215836.97
  30
3244
  0
VERTEX
  8
Unknown_Line_Type
  70
32
  10
1818980.54
  20
3215837.87
  30
3244
  0
VERTEX
  8
Unknown_Line_Type
  70
32
  10
1818982.26
  20
3215838.71
  30
3244
  0
VERTEX
  8
Unknown_Line_Type
  70
32
  10
1818984.01
  20
3215839.47
  30
3244
  0
VERTEX
  8
Unknown_Line_Type
  70
32
  10
1818985.78
  20
3215840.15
  30
3244
  0
VERTEX
  8
Unknown_Line_Type
  70
32
  10
1818987.57
  20
3215840.70
  30
3244
  0
VERTEX
  8
Unknown_Line_Type
  70
32
  10
1818989.11
  20
3215841.06
  30
3244
  0
VERTEX
  8
Unknown_Line_Type
  70
32
  10
1818993.72
  20
3215841.91
  30
3244
  0
VERTEX
  8
Unknown_Line_Type
  70
32
  10
1818995.23
  20
3215842.23
  30
3244
  0
VERTEX
  8
Unknown_Line_Type
  70
32
  10
1818999.97
  20
3215843.54
  30
3244
  0
VERTEX
  8
Unknown_Line_Type
  70
32
  10
1819001.61
  20
3215843.91
  30
3244
  0
VERTEX
  8
Unknown_Line_Type
  70
32
  10
1819003.24
  20
3215844.13
  30
3244
  0
VERTEX
  8
Unknown_Line_Type
  70
32
  10
1819004.91
  20
3215844.17
  30
3244
  0
VERTEX
  8
Unknown_Line_Type
  70
32
  10
1819008.25
  20
3215844.03
  30
3244
  0
VERTEX
  8
Unknown_Line_Type
  70
32
  10
1819012.03
  20
3215844.08
  30
3244
  0
VERTEX
  8
Unknown_Line_Type
  70
32
  10
1819013.29
  20
3215844.03
  30
3244
  0
VERTEX
  8
Unknown_Line_Type
  70
32
  10
1819014.56
  20
3215843.93
  30
3244
  0
VERTEX
  8
Unknown_Line_Type
  70
32
  10
1819015.84
  20
3215843.78
  30
3244
  0
VERTEX
  8
Unknown_Line_Type
  70
32
  10
1819019.40
  20
3215843.28
  30
3244
  0
VERTEX
  8
Unknown_Line_Type
  70
32
  10
1819021.19
  20
3215843.13
  30
3244
  0
VERTEX
  8
Unknown_Line_Type
  70
32
  10
1819022.76
  20
3215843.11
  30
3244
  0
VERTEX
  8
Unknown_Line_Type
  70
32
  10
1819024.34
  20
3215843.17
  30
3244
  0
VERTEX
  8
Unknown_Line_Type
  70
32
  10
1819027.56
  20
3215843.37
  30
3244
  0
VERTEX
  8
Unknown_Line_Type
  70
32
  10
1819029.34
  20
3215843.43
  30
3244
  0
VERTEX
  8
Unknown_Line_Type
  70
32
  10
1819037.27
  20
3215843.49
  30
3244
  0
VERTEX
  8
Unknown_Line_Type
  70
32
  10
1819043.15
  20
3215843.62
  30
3244
  0
VERTEX
  8
Unknown_Line_Type
  70
32
  10
1819047.08
  20
3215843.66
  30
3244
  0
VERTEX
  8
Unknown_Line_Type
  70
32
  10
1819051.53
  20
3215843.59
  30
3244
  0
VERTEX
  8
Unknown_Line_Type
  70
32
  10
1819063.75
  20
3215843.13
  30
3244
  0
VERTEX
  8
Unknown_Line_Type
  70
32
  10
1819068.19
  20
3215842.91
  30
3244
  0
VERTEX
  8
Unknown_Line_Type
  70
32
  10
1819074.47
  20
3215842.45
  30
3244
  0
VERTEX
  8
Unknown_Line_Type
  70
32
  10
1819077.78
  20
3215842.10
  30
3244
  0
VERTEX
  8
Unknown_Line_Type
  70
32
  10
1819079.66
  20
3215841.83
  30
3244
  0
VERTEX
  8
Unknown_Line_Type
  70
32
  10
1819081.51
  20
3215841.49
  30
3244
  0
VERTEX
  8
Unknown_Line_Type
  70
32
  10
1819083.33
  20
3215841.08
  30
3244
  0
VERTEX
  8
Unknown_Line_Type
  70
32
  10
1819084.79
  20
3215840.67
  30
3244
  0
VERTEX
  8
Unknown_Line_Type
  70
32
  10
1819085.92
  20
3215840.29
  30
3244
  0
VERTEX
  8
Unknown_Line_Type
  70
32
  10
1819087.04
  20
3215839.86
  30
3244
  0
VERTEX
  8
Unknown_Line_Type
  70
32
  10
1819088.70
  20
3215839.17
  30
3244
  0
VERTEX
  8
Unknown_Line_Type
  70
32
  10
1819090.35
  20
3215838.43
  30
3244
  0
VERTEX
  8
Unknown_Line_Type
  70
32
  10
1819091.97
  20
3215837.64
  30
3244
  0
VERTEX
  8
Unknown_Line_Type
  70
32
  10
1819093.56
  20
3215836.81
  30
3244
  0
VERTEX
  8
Unknown_Line_Type
  70
32
  10
1819095.12
  20
3215835.93
  30
3244
  0
VERTEX
  8
Unknown_Line_Type
  70
32
  10
1819096.50
  20
3215835.06
  30
3244
  0
VERTEX
  8
Unknown_Line_Type
  70
32
  10
1819097.95
  20
3215833.99
  30
3244
  0
VERTEX
  8
Unknown_Line_Type
  70
32
  10
1819099.29
  20
3215832.80
  30
3244
  0
VERTEX
  8
Unknown_Line_Type
  70
32
  10
1819100.48
  20
3215831.55
  30
3244
  0
VERTEX
  8
Unknown_Line_Type
  70
32
  10
1819101.60
  20
3215830.22
  30
3244
  0
VERTEX
  8
Unknown_Line_Type
  70
32
  10
1819104.81
  20
3215826.05
  30
3244
  0
VERTEX
  8
Unknown_Line_Type
  70
32
  10
1819105.94
  20
3215824.68
  30
3244
  0
VERTEX
  8
Unknown_Line_Type
  70
32
  10
1819107.11
  20
3215823.36
  30
3244
  0
VERTEX
  8
Unknown_Line_Type
  70
32
  10
1819108.21
  20
3215822.26
  30
3244
  0
VERTEX
  8
Unknown_Line_Type
  70
32
  10
1819109.36
  20
3215821.24
  30
3244
  0
VERTEX
  8
Unknown_Line_Type
  70
32
  10
1819110.15
  20
3215820.64
  30
3244
  0
VERTEX
  8
Unknown_Line_Type
  70
32
  10
1819110.97
  20
3215820.08
  30
3244
  0
VERTEX
  8
Unknown_Line_Type
  70
32
  10
1819112.36
  20
3215819.22
  30
3244
  0
VERTEX
  8
Unknown_Line_Type
  70
32
  10
1819113.80
  20
3215818.41
  30
3244
  0
VERTEX
  8
Unknown_Line_Type
  70
32
  10
1819115.28
  20
3215817.64
  30
3244
  0
VERTEX
  8
Unknown_Line_Type
  70
32
  10
1819118.32
  20
3215816.20
  30
3244
  0
VERTEX
  8
Unknown_Line_Type
  70
32
  10
1819123.17
  20
3215814.08
  30
3244
  0
VERTEX
  8
Unknown_Line_Type
  70
32
  10
1819124.76
  20
3215813.33
  30
3244
  0
VERTEX
  8
Unknown_Line_Type
  70
32
  10
1819126.06
  20
3215812.66
  30
3244
  0
VERTEX
  8
Unknown_Line_Type
  70
32
  10
1819128.59
  20
3215811.24
  30
3244
  0
VERTEX
  8
Unknown_Line_Type
  70
32
  10
1819130.05
  20
3215810.37
  30
3244
  0
VERTEX
  8
Unknown_Line_Type
  70
32
  10
1819131.46
  20
3215809.47
  30
3244
  0
VERTEX
  8
Unknown_Line_Type
  70
32
  10
1819132.81
  20
3215808.51
  30
3244
  0
VERTEX
  8
Unknown_Line_Type
  70
32
  10
1819134.07
  20
3215807.47
  30
3244
  0
VERTEX
  8
Unknown_Line_Type
  70
32
  10
1819135.31
  20
3215806.21
  30
3244
  0
VERTEX
  8
Unknown_Line_Type
  70
32
  10
1819136.43
  20
3215804.86
  30
3244
  0
VERTEX
  8
Unknown_Line_Type
  70
32
  10
1819137.82
  20
3215803.01
  30
3244
  0
VERTEX
  8
Unknown_Line_Type
  70
32
  10
1819138.67
  20
3215801.94
  30
3244
  0
VERTEX
  8
Unknown_Line_Type
  70
32
  10
1819141.38
  20
3215798.68
  30
3244
  0
VERTEX
  8
Unknown_Line_Type
  70
32
  10
1819142.30
  20
3215797.53
  30
3244
  0
VERTEX
  8
Unknown_Line_Type
  70
32
  10
1819143.19
  20
3215796.36
  30
3244
  0
VERTEX
  8
Unknown_Line_Type
  70
32
  10
1819144.02
  20
3215795.18
  30
3244
  0
VERTEX
  8
Unknown_Line_Type
  70
32
  10
1819145.73
  20
3215792.44
  30
3244
  0
VERTEX
  8
Unknown_Line_Type
  70
32
  10
1819146.61
  20
3215791.14
  30
3244
  0
VERTEX
  8
Unknown_Line_Type
  70
32
  10
1819147.58
  20
3215789.94
  30
3244
  0
VERTEX
  8
Unknown_Line_Type
  70
32
  10
1819148.72
  20
3215788.86
  30
3244
  0
VERTEX
  8
Unknown_Line_Type
  70
32
  10
1819149.98
  20
3215787.87
  30
3244
  0
VERTEX
  8
Unknown_Line_Type
  70
32
  10
1819152.57
  20
3215785.92
  30
3244
  0
VERTEX
  8
Unknown_Line_Type
  70
32
  10
1819153.83
  20
3215784.90
  30
3244
  0
VERTEX
  8
Unknown_Line_Type
  70
32
  10
1819155.06
  20
3215783.83
  30
3244
  0
VERTEX
  8
Unknown_Line_Type
  70
32
  10
1819157.44
  20
3215781.62
  30
3244
  0
VERTEX
  8
Unknown_Line_Type
  70
32
  10
1819158.84
  20
3215780.46
  30
3244
  0
VERTEX
  8
Unknown_Line_Type
  70
32
  10
1819160.23
  20
3215779.47
  30
3244
  0
VERTEX
  8
Unknown_Line_Type
  70
32
  10
1819161.53
  20
3215778.63
  30
3244
  0
VERTEX
  8
Unknown_Line_Type
  70
32
  10
1819162.87
  20
3215777.83
  30
3244
  0
VERTEX
  8
Unknown_Line_Type
  70
32
  10
1819164.94
  20
3215776.71
  30
3244
  0
VERTEX
  8
Unknown_Line_Type
  70
32
  10
1819166.25
  20
3215776.09
  30
3244
  0
VERTEX
  8
Unknown_Line_Type
  70
32
  10
1819167.58
  20
3215775.53
  30
3244
  0
VERTEX
  8
Unknown_Line_Type
  70
32
  10
1819168.94
  20
3215775.07
  30
3244
  0
VERTEX
  8
Unknown_Line_Type
  70
32
  10
1819170.74
  20
3215774.60
  30
3244
  0
VERTEX
  8
Unknown_Line_Type
  70
32
  10
1819175.99
  20
3215773.57
  30
3244
  0
VERTEX
  8
Unknown_Line_Type
  70
32
  10
1819180.91
  20
3215772.50
  30
3244
  0
VERTEX
  8
Unknown_Line_Type
  70
32
  10
1819186.08
  20
3215771.43
  30
3244
  0
VERTEX
  8
Unknown_Line_Type
  70
32
  10
1819187.78
  20
3215771.12
  30
3244
  0
VERTEX
  8
Unknown_Line_Type
  70
32
  10
1819189.54
  20
3215770.87
  30
3244
  0
VERTEX
  8
Unknown_Line_Type
  70
32
  10
1819191.31
  20
3215770.66
  30
3244
  0
VERTEX
  8
Unknown_Line_Type
  70
32
  10
1819194.87
  20
3215770.34
  30
3244
  0
VERTEX
  8
Unknown_Line_Type
  70
32
  10
1819200.20
  20
3215769.97
  30
3244
  0
VERTEX
  8
Unknown_Line_Type
  70
32
  10
1819205.88
  20
3215769.63
  30
3244
  0
VERTEX
  8
Unknown_Line_Type
  70
32
  10
1819207.65
  20
3215769.59
  30
3244
  0
VERTEX
  8
Unknown_Line_Type
  70
32
  10
1819209.39
  20
3215769.63
  30
3244
  0
VERTEX
  8
Unknown_Line_Type
  70
32
  10
1819211.20
  20
3215769.81
  30
3244
  0
VERTEX
  8
Unknown_Line_Type
  70
32
  10
1819212.95
  20
3215770.16
  30
3244
  0
VERTEX
  8
Unknown_Line_Type
  70
32
  10
1819214.61
  20
3215770.71
  30
3244
  0
VERTEX
  8
Unknown_Line_Type
  70
32
  10
1819215.95
  20
3215771.38
  30
3244
  0
VERTEX
  8
Unknown_Line_Type
  70
32
  10
1819217.23
  20
3215772.19
  30
3244
  0
VERTEX
  8
Unknown_Line_Type
  70
32
  10
1819221.01
  20
3215774.90
  30
3244
  0
VERTEX
  8
Unknown_Line_Type
  70
32
  10
1819222.31
  20
3215775.79
  30
3244
  0
VERTEX
  8
Unknown_Line_Type
  70
32
  10
1819224.98
  20
3215777.48
  30
3244
  0
VERTEX
  8
Unknown_Line_Type
  70
32
  10
1819228.35
  20
3215779.42
  30
3244
  0
VERTEX
  8
Unknown_Line_Type
  70
32
  10
1819233.78
  20
3215782.41
  30
3244
  0
VERTEX
  8
Unknown_Line_Type
  70
32
  10
1819235.34
  20
3215783.31
  30
3244
  0
VERTEX
  8
Unknown_Line_Type
  70
32
  10
1819238.99
  20
3215785.54
  30
3244
  0
SEQEND
  8
Unknown_Line_Type
  0
POLYLINE
  8
Unknown_Line_Type
  70
8
  66
1
 62
0
 39
0
  0
VERTEX
  8
Unknown_Line_Type
  70
32
  10
1819228.20
  20
3215797.08
  30
3246
  0
VERTEX
  8
Unknown_Line_Type
  70
32
  10
1819227.85
  20
3215797.01
  30
3246
  0
VERTEX
  8
Unknown_Line_Type
  70
32
  10
1819226.92
  20
3215796.64
  30
3246
  0
VERTEX
  8
Unknown_Line_Type
  70
32
  10
1819225.52
  20
3215796.02
  30
3246
  0
VERTEX
  8
Unknown_Line_Type
  70
32
  10
1819223.76
  20
3215795.17
  30
3246
  0
VERTEX
  8
Unknown_Line_Type
  70
32
  10
1819220.35
  20
3215793.39
  30
3246
  0
VERTEX
  8
Unknown_Line_Type
  70
32
  10
1819212.91
  20
3215789.36
  30
3246
  0
VERTEX
  8
Unknown_Line_Type
  70
32
  10
1819211.25
  20
3215788.50
  30
3246
  0
VERTEX
  8
Unknown_Line_Type
  70
32
  10
1819209.55
  20
3215787.68
  30
3246
  0
VERTEX
  8
Unknown_Line_Type
  70
32
  10
1819207.87
  20
3215786.95
  30
3246
  0
VERTEX
  8
Unknown_Line_Type
  70
32
  10
1819206.17
  20
3215786.31
  30
3246
  0
VERTEX
  8
Unknown_Line_Type
  70
32
  10
1819204.44
  20
3215785.81
  30
3246
  0
VERTEX
  8
Unknown_Line_Type
  70
32
  10
1819202.59
  20
3215785.44
  30
3246
  0
VERTEX
  8
Unknown_Line_Type
  70
32
  10
1819200.71
  20
3215785.20
  30
3246
  0
VERTEX
  8
Unknown_Line_Type
  70
32
  10
1819198.81
  20
3215785.07
  30
3246
  0
VERTEX
  8
Unknown_Line_Type
  70
32
  10
1819196.90
  20
3215785.00
  30
3246
  0
VERTEX
  8
Unknown_Line_Type
  70
32
  10
1819194.99
  20
3215784.99
  30
3246
  0
VERTEX
  8
Unknown_Line_Type
  70
32
  10
1819193.07
  20
3215785.03
  30
3246
  0
VERTEX
  8
Unknown_Line_Type
  70
32
  10
1819191.17
  20
3215785.12
  30
3246
  0
VERTEX
  8
Unknown_Line_Type
  70
32
  10
1819189.43
  20
3215785.24
  30
3246
  0
VERTEX
  8
Unknown_Line_Type
  70
32
  10
1819183.26
  20
3215785.76
  30
3246
  0
VERTEX
  8
Unknown_Line_Type
  70
32
  10
1819182.18
  20
3215785.89
  30
3246
  0
VERTEX
  8
Unknown_Line_Type
  70
32
  10
1819180.64
  20
3215786.17
  30
3246
  0
VERTEX
  8
Unknown_Line_Type
  70
32
  10
1819179.09
  20
3215786.56
  30
3246
  0
VERTEX
  8
Unknown_Line_Type
  70
32
  10
1819177.57
  20
3215787.04
  30
3246
  0
VERTEX
  8
Unknown_Line_Type
  70
32
  10
1819176.49
  20
3215787.43
  30
3246
  0
VERTEX
  8
Unknown_Line_Type
  70
32
  10
1819174.86
  20
3215788.09
  30
3246
  0
VERTEX
  8
Unknown_Line_Type
  70
32
  10
1819173.28
  20
3215788.81
  30
3246
  0
VERTEX
  8
Unknown_Line_Type
  70
32
  10
1819171.76
  20
3215789.65
  30
3246
  0
VERTEX
  8
Unknown_Line_Type
  70
32
  10
1819170.33
  20
3215790.61
  30
3246
  0
VERTEX
  8
Unknown_Line_Type
  70
32
  10
1819169.06
  20
3215791.71
  30
3246
  0
VERTEX
  8
Unknown_Line_Type
  70
32
  10
1819167.89
  20
3215792.93
  30
3246
  0
VERTEX
  8
Unknown_Line_Type
  70
32
  10
1819166.81
  20
3215794.26
  30
3246
  0
VERTEX
  8
Unknown_Line_Type
  70
32
  10
1819165.73
  20
3215795.77
  30
3246
  0
VERTEX
  8
Unknown_Line_Type
  70
32
  10
1819164.75
  20
3215797.35
  30
3246
  0
VERTEX
  8
Unknown_Line_Type
  70
32
  10
1819163.86
  20
3215799.00
  30
3246
  0
VERTEX
  8
Unknown_Line_Type
  70
32
  10
1819163.13
  20
3215800.58
  30
3246
  0
VERTEX
  8
Unknown_Line_Type
  70
32
  10
1819161.10
  20
3215805.37
  30
3246
  0
VERTEX
  8
Unknown_Line_Type
  70
32
  10
1819160.32
  20
3215806.96
  30
3246
  0
VERTEX
  8
Unknown_Line_Type
  70
32
  10
1819159.42
  20
3215808.46
  30
3246
  0
VERTEX
  8
Unknown_Line_Type
  70
32
  10
1819158.43
  20
3215809.80
  30
3246
  0
VERTEX
  8
Unknown_Line_Type
  70
32
  10
1819157.33
  20
3215811.05
  30
3246
  0
VERTEX
  8
Unknown_Line_Type
  70
32
  10
1819156.13
  20
3215812.22
  30
3246
  0
VERTEX
  8
Unknown_Line_Type
  70
32
  10
1819154.86
  20
3215813.32
  30
3246
  0
VERTEX
  8
Unknown_Line_Type
  70
32
  10
1819153.52
  20
3215814.34
  30
3246
  0
VERTEX
  8
Unknown_Line_Type
  70
32
  10
1819152.35
  20
3215815.13
  30
3246
  0
VERTEX
  8
Unknown_Line_Type
  70
32
  10
1819151.15
  20
3215815.86
  30
3246
  0
VERTEX
  8
Unknown_Line_Type
  70
32
  10
1819149.91
  20
3215816.52
  30
3246
  0
VERTEX
  8
Unknown_Line_Type
  70
32
  10
1819148.18
  20
3215817.30
  30
3246
  0
VERTEX
  8
Unknown_Line_Type
  70
32
  10
1819145.55
  20
3215818.29
  30
3246
  0
VERTEX
  8
Unknown_Line_Type
  70
32
  10
1819138.99
  20
3215820.51
  30
3246
  0
VERTEX
  8
Unknown_Line_Type
  70
32
  10
1819135.26
  20
3215821.70
  30
3246
  0
VERTEX
  8
Unknown_Line_Type
  70
32
  10
1819133.39
  20
3215822.26
  30
3246
  0
VERTEX
  8
Unknown_Line_Type
  70
32
  10
1819128.44
  20
3215823.63
  30
3246
  0
VERTEX
  8
Unknown_Line_Type
  70
32
  10
1819126.83
  20
3215824.15
  30
3246
  0
VERTEX
  8
Unknown_Line_Type
  70
32
  10
1819125.08
  20
3215824.85
  30
3246
  0
VERTEX
  8
Unknown_Line_Type
  70
32
  10
1819123.38
  20
3215825.64
  30
3246
  0
VERTEX
  8
Unknown_Line_Type
  70
32
  10
1819121.74
  20
3215826.55
  30
3246
  0
VERTEX
  8
Unknown_Line_Type
  70
32
  10
1819120.18
  20
3215827.55
  30
3246
  0
VERTEX
  8
Unknown_Line_Type
  70
32
  10
1819119.14
  20
3215828.32
  30
3246
  0
VERTEX
  8
Unknown_Line_Type
  70
32
  10
1819118.14
  20
3215829.13
  30
3246
  0
VERTEX
  8
Unknown_Line_Type
  70
32
  10
1819114.03
  20
3215832.70
  30
3246
  0
VERTEX
  8
Unknown_Line_Type
  70
32
  10
1819113.11
  20
3215833.43
  30
3246
  0
VERTEX
  8
Unknown_Line_Type
  70
32
  10
1819111.59
  20
3215834.43
  30
3246
  0
VERTEX
  8
Unknown_Line_Type
  70
32
  10
1819109.98
  20
3215835.30
  30
3246
  0
VERTEX
  8
Unknown_Line_Type
  70
32
  10
1819108.31
  20
3215836.06
  30
3246
  0
VERTEX
  8
Unknown_Line_Type
  70
32
  10
1819102.45
  20
3215838.45
  30
3246
  0
VERTEX
  8
Unknown_Line_Type
  70
32
  10
1819099.41
  20
3215839.65
  30
3246
  0
VERTEX
  8
Unknown_Line_Type
  70
32
  10
1819097.90
  20
3215840.27
  30
3246
  0
VERTEX
  8
Unknown_Line_Type
  70
32
  10
1819096.74
  20
3215840.80
  30
3246
  0
VERTEX
  8
Unknown_Line_Type
  70
32
  10
1819095.59
  20
3215841.36
  30
3246
  0
VERTEX
  8
Unknown_Line_Type
  70
32
  10
1819091.11
  20
3215843.73
  30
3246
  0
VERTEX
  8
Unknown_Line_Type
  70
32
  10
1819089.61
  20
3215844.45
  30
3246
  0
VERTEX
  8
Unknown_Line_Type
  70
32
  10
1819088.06
  20
3215845.07
  30
3246
  0
VERTEX
  8
Unknown_Line_Type
  70
32
  10
1819086.38
  20
3215845.56
  30
3246
  0
VERTEX
  8
Unknown_Line_Type
  70
32
  10
1819084.65
  20
3215845.93
  30
3246
  0
VERTEX
  8
Unknown_Line_Type
  70
32
  10
1819082.88
  20
3215846.22
  30
3246
  0
VERTEX
  8
Unknown_Line_Type
  70
32
  10
1819079.09
  20
3215846.70
  30
3246
  0
VERTEX
  8
Unknown_Line_Type
  70
32
  10
1819077.17
  20
3215846.89
  30
3246
  0
VERTEX
  8
Unknown_Line_Type
  70
32
  10
1819075.23
  20
3215847.04
  30
3246
  0
VERTEX
  8
Unknown_Line_Type
  70
32
  10
1819071.43
  20
3215847.21
  30
3246
  0
VERTEX
  8
Unknown_Line_Type
  70
32
  10
1819062.08
  20
3215847.43
  30
3246
  0
VERTEX
  8
Unknown_Line_Type
  70
32
  10
1819051.89
  20
3215847.88
  30
3246
  0
VERTEX
  8
Unknown_Line_Type
  70
32
  10
1819041.57
  20
3215848.07
  30
3246
  0
VERTEX
  8
Unknown_Line_Type
  70
32
  10
1819038.49
  20
3215848.18
  30
3246
  0
VERTEX
  8
Unknown_Line_Type
  70
32
  10
1819036.77
  20
3215848.28
  30
3246
  0
VERTEX
  8
Unknown_Line_Type
  70
32
  10
1819033.34
  20
3215848.55
  30
3246
  0
VERTEX
  8
Unknown_Line_Type
  70
32
  10
1819030.11
  20
3215848.89
  30
3246
  0
VERTEX
  8
Unknown_Line_Type
  70
32
  10
1819027.02
  20
3215849.30
  30
3246
  0
VERTEX
  8
Unknown_Line_Type
  70
32
  10
1819024.09
  20
3215849.79
  30
3246
  0
VERTEX
  8
Unknown_Line_Type
  70
32
  10
1819022.64
  20
3215850.07
  30
3246
  0
VERTEX
  8
Unknown_Line_Type
  70
32
  10
1819020.05
  20
3215850.64
  30
3246
  0
VERTEX
  8
Unknown_Line_Type
  70
32
  10
1819018.66
  20
3215851.01
  30
3246
  0
VERTEX
  8
Unknown_Line_Type
  70
32
  10
1819017.29
  20
3215851.44
  30
3246
  0
VERTEX
  8
Unknown_Line_Type
  70
32
  10
1819015.97
  20
3215851.93
  30
3246
  0
VERTEX
  8
Unknown_Line_Type
  70
32
  10
1819014.69
  20
3215852.50
  30
3246
  0
VERTEX
  8
Unknown_Line_Type
  70
32
  10
1819013.45
  20
3215853.15
  30
3246
  0
VERTEX
  8
Unknown_Line_Type
  70
32
  10
1819011.01
  20
3215854.58
  30
3246
  0
VERTEX
  8
Unknown_Line_Type
  70
32
  10
1819009.54
  20
3215855.39
  30
3246
  0
VERTEX
  8
Unknown_Line_Type
  70
32
  10
1819006.43
  20
3215857.00
  30
3246
  0
VERTEX
  8
Unknown_Line_Type
  70
32
  10
1819004.80
  20
3215857.78
  30
3246
  0
VERTEX
  8
Unknown_Line_Type
  70
32
  10
1819003.15
  20
3215858.47
  30
3246
  0
VERTEX
  8
Unknown_Line_Type
  70
32
  10
1819001.49
  20
3215859.04
  30
3246
  0
VERTEX
  8
Unknown_Line_Type
  70
32
  10
1818999.88
  20
3215859.43
  30
3246
  0
VERTEX
  8
Unknown_Line_Type
  70
32
  10
1818998.26
  20
3215859.65
  30
3246
  0
VERTEX
  8
Unknown_Line_Type
  70
32
  10
1818994.01
  20
3215859.85
  30
3246
  0
VERTEX
  8
Unknown_Line_Type
  70
32
  10
1818992.31
  20
3215860.00
  30
3246
  0
VERTEX
  8
Unknown_Line_Type
  70
32
  10
1818990.61
  20
3215860.24
  30
3246
  0
VERTEX
  8
Unknown_Line_Type
  70
32
  10
1818987.23
  20
3215860.97
  30
3246
  0
VERTEX
  8
Unknown_Line_Type
  70
32
  10
1818985.57
  20
3215861.25
  30
3246
  0
VERTEX
  8
Unknown_Line_Type
  70
32
  10
1818983.88
  20
3215861.40
  30
3246
  0
VERTEX
  8
Unknown_Line_Type
  70
32
  10
1818982.19
  20
3215861.38
  30
3246
  0
VERTEX
  8
Unknown_Line_Type
  70
32
  10
1818980.39
  20
3215861.15
  30
3246
  0
VERTEX
  8
Unknown_Line_Type
  70
32
  10
1818978.59
  20
3215860.72
  30
3246
  0
VERTEX
  8
Unknown_Line_Type
  70
32
  10
1818976.82
  20
3215860.13
  30
3246
  0
VERTEX
  8
Unknown_Line_Type
  70
32
  10
1818973.41
  20
3215858.82
  30
3246
  0
VERTEX
  8
Unknown_Line_Type
  70
32
  10
1818971.44
  20
3215858.13
  30
3246
  0
VERTEX
  8
Unknown_Line_Type
  70
32
  10
1818969.38
  20
3215857.51
  30
3246
  0
VERTEX
  8
Unknown_Line_Type
  70
32
  10
1818967.28
  20
3215857.03
  30
3246
  0
VERTEX
  8
Unknown_Line_Type
  70
32
  10
1818964.91
  20
3215856.70
  30
3246
  0
VERTEX
  8
Unknown_Line_Type
  70
32
  10
1818962.70
  20
3215856.58
  30
3246
  0
VERTEX
  8
Unknown_Line_Type
  70
32
  10
1818960.77
  20
3215856.61
  30
3246
  0
VERTEX
  8
Unknown_Line_Type
  70
32
  10
1818959.27
  20
3215856.76
  30
3246
  0
VERTEX
  8
Unknown_Line_Type
  70
32
  10
1818958.33
  20
3215856.96
  30
3246
  0
VERTEX
  8
Unknown_Line_Type
  70
32
  10
1818958.00
  20
3215857.15
  30
3246
  0
SEQEND
  8
Unknown_Line_Type
  0
POLYLINE
  8
Unknown_Line_Type
  70
8
  66
1
 62
0
 39
0
  0
VERTEX
  8
Unknown_Line_Type
  70
32
  10
1818958.00
  20
3215884.52
  30
3248
  0
VERTEX
  8
Unknown_Line_Type
  70
32
  10
1818958.16
  20
3215884.56
  30
3248
  0
VERTEX
  8
Unknown_Line_Type
  70
32
  10
1818958.56
  20
3215884.46
  30
3248
  0
VERTEX
  8
Unknown_Line_Type
  70
32
  10
1818959.50
  20
3215884.07
  30
3248
  0
VERTEX
  8
Unknown_Line_Type
  70
32
  10
1818960.82
  20
3215883.43
  30
3248
  0
VERTEX
  8
Unknown_Line_Type
  70
32
  10
1818964.25
  20
3215881.56
  30
3248
  0
VERTEX
  8
Unknown_Line_Type
  70
32
  10
1818970.22
  20
3215878.20
  30
3248
  0
VERTEX
  8
Unknown_Line_Type
  70
32
  10
1818973.88
  20
3215876.25
  30
3248
  0
VERTEX
  8
Unknown_Line_Type
  70
32
  10
1818976.54
  20
3215874.97
  30
3248
  0
VERTEX
  8
Unknown_Line_Type
  70
32
  10
1818979.11
  20
3215873.90
  30
3248
  0
VERTEX
  8
Unknown_Line_Type
  70
32
  10
1818983.65
  20
3215872.18
  30
3248
  0
VERTEX
  8
Unknown_Line_Type
  70
32
  10
1818992.11
  20
3215868.80
  30
3248
  0
VERTEX
  8
Unknown_Line_Type
  70
32
  10
1818993.40
  20
3215868.33
  30
3248
  0
VERTEX
  8
Unknown_Line_Type
  70
32
  10
1818994.70
  20
3215867.97
  30
3248
  0
VERTEX
  8
Unknown_Line_Type
  70
32
  10
1818996.03
  20
3215867.72
  30
3248
  0
VERTEX
  8
Unknown_Line_Type
  70
32
  10
1819003.67
  20
3215866.67
  30
3248
  0
VERTEX
  8
Unknown_Line_Type
  70
32
  10
1819006.77
  20
3215866.20
  30
3248
  0
VERTEX
  8
Unknown_Line_Type
  70
32
  10
1819008.31
  20
3215865.91
  30
3248
  0
VERTEX
  8
Unknown_Line_Type
  70
32
  10
1819009.83
  20
3215865.56
  30
3248
  0
VERTEX
  8
Unknown_Line_Type
  70
32
  10
1819011.29
  20
3215865.13
  30
3248
  0
VERTEX
  8
Unknown_Line_Type
  70
32
  10
1819012.71
  20
3215864.61
  30
3248
  0
VERTEX
  8
Unknown_Line_Type
  70
32
  10
1819014.24
  20
3215863.93
  30
3248
  0
VERTEX
  8
Unknown_Line_Type
  70
32
  10
1819015.71
  20
3215863.15
  30
3248
  0
VERTEX
  8
Unknown_Line_Type
  70
32
  10
1819017.14
  20
3215862.30
  30
3248
  0
VERTEX
  8
Unknown_Line_Type
  70
32
  10
1819019.52
  20
3215860.74
  30
3248
  0
VERTEX
  8
Unknown_Line_Type
  70
32
  10
1819020.73
  20
3215859.99
  30
3248
  0
VERTEX
  8
Unknown_Line_Type
  70
32
  10
1819021.84
  20
3215859.37
  30
3248
  0
VERTEX
  8
Unknown_Line_Type
  70
32
  10
1819024.46
  20
3215858.07
  30
3248
  0
VERTEX
  8
Unknown_Line_Type
  70
32
  10
1819025.96
  20
3215857.37
  30
3248
  0
VERTEX
  8
Unknown_Line_Type
  70
32
  10
1819027.48
  20
3215856.71
  30
3248
  0
VERTEX
  8
Unknown_Line_Type
  70
32
  10
1819029.03
  20
3215856.10
  30
3248
  0
VERTEX
  8
Unknown_Line_Type
  70
32
  10
1819030.61
  20
3215855.54
  30
3248
  0
VERTEX
  8
Unknown_Line_Type
  70
32
  10
1819032.28
  20
3215855.03
  30
3248
  0
VERTEX
  8
Unknown_Line_Type
  70
32
  10
1819033.97
  20
3215854.59
  30
3248
  0
VERTEX
  8
Unknown_Line_Type
  70
32
  10
1819035.69
  20
3215854.21
  30
3248
  0
VERTEX
  8
Unknown_Line_Type
  70
32
  10
1819038.63
  20
3215853.64
  30
3248
  0
VERTEX
  8
Unknown_Line_Type
  70
32
  10
1819041.64
  20
3215853.11
  30
3248
  0
VERTEX
  8
Unknown_Line_Type
  70
32
  10
1819044.71
  20
3215852.62
  30
3248
  0
VERTEX
  8
Unknown_Line_Type
  70
32
  10
1819053.32
  20
3215851.62
  30
3248
  0
VERTEX
  8
Unknown_Line_Type
  70
32
  10
1819056.70
  20
3215851.13
  30
3248
  0
VERTEX
  8
Unknown_Line_Type
  70
32
  10
1819059.51
  20
3215850.76
  30
3248
  0
VERTEX
  8
Unknown_Line_Type
  70
32
  10
1819062.17
  20
3215850.51
  30
3248
  0
VERTEX
  8
Unknown_Line_Type
  70
32
  10
1819063.72
  20
3215850.40
  30
3248
  0
VERTEX
  8
Unknown_Line_Type
  70
32
  10
1819066.73
  20
3215850.26
  30
3248
  0
VERTEX
  8
Unknown_Line_Type
  70
32
  10
1819069.63
  20
3215850.21
  30
3248
  0
VERTEX
  8
Unknown_Line_Type
  70
32
  10
1819071.30
  20
3215850.22
  30
3248
  0
VERTEX
  8
Unknown_Line_Type
  70
32
  10
1819074.64
  20
3215850.30
  30
3248
  0
VERTEX
  8
Unknown_Line_Type
  70
32
  10
1819076.30
  20
3215850.37
  30
3248
  0
VERTEX
  8
Unknown_Line_Type
  70
32
  10
1819079.58
  20
3215850.59
  30
3248
  0
VERTEX
  8
Unknown_Line_Type
  70
32
  10
1819083.28
  20
3215850.93
  30
3248
  0
VERTEX
  8
Unknown_Line_Type
  70
32
  10
1819084.85
  20
3215851.00
  30
3248
  0
VERTEX
  8
Unknown_Line_Type
  70
32
  10
1819086.18
  20
3215850.97
  30
3248
  0
VERTEX
  8
Unknown_Line_Type
  70
32
  10
1819087.82
  20
3215850.82
  30
3248
  0
VERTEX
  8
Unknown_Line_Type
  70
32
  10
1819089.45
  20
3215850.57
  30
3248
  0
VERTEX
  8
Unknown_Line_Type
  70
32
  10
1819091.01
  20
3215850.29
  30
3248
  0
VERTEX
  8
Unknown_Line_Type
  70
32
  10
1819092.57
  20
3215849.97
  30
3248
  0
VERTEX
  8
Unknown_Line_Type
  70
32
  10
1819094.16
  20
3215849.58
  30
3248
  0
VERTEX
  8
Unknown_Line_Type
  70
32
  10
1819104.60
  20
3215846.75
  30
3248
  0
VERTEX
  8
Unknown_Line_Type
  70
32
  10
1819106.32
  20
3215846.32
  30
3248
  0
VERTEX
  8
Unknown_Line_Type
  70
32
  10
1819110.90
  20
3215845.23
  30
3248
  0
VERTEX
  8
Unknown_Line_Type
  70
32
  10
1819113.99
  20
3215844.44
  30
3248
  0
VERTEX
  8
Unknown_Line_Type
  70
32
  10
1819115.71
  20
3215843.96
  30
3248
  0
VERTEX
  8
Unknown_Line_Type
  70
32
  10
1819117.41
  20
3215843.44
  30
3248
  0
VERTEX
  8
Unknown_Line_Type
  70
32
  10
1819119.09
  20
3215842.87
  30
3248
  0
VERTEX
  8
Unknown_Line_Type
  70
32
  10
1819120.72
  20
3215842.24
  30
3248
  0
VERTEX
  8
Unknown_Line_Type
  70
32
  10
1819122.31
  20
3215841.51
  30
3248
  0
VERTEX
  8
Unknown_Line_Type
  70
32
  10
1819123.84
  20
3215840.67
  30
3248
  0
VERTEX
  8
Unknown_Line_Type
  70
32
  10
1819125.29
  20
3215839.72
  30
3248
  0
VERTEX
  8
Unknown_Line_Type
  70
32
  10
1819126.66
  20
3215838.68
  30
3248
  0
VERTEX
  8
Unknown_Line_Type
  70
32
  10
1819127.96
  20
3215837.57
  30
3248
  0
VERTEX
  8
Unknown_Line_Type
  70
32
  10
1819128.75
  20
3215836.82
  30
3248
  0
VERTEX
  8
Unknown_Line_Type
  70
32
  10
1819130.49
  20
3215835.08
  30
3248
  0
VERTEX
  8
Unknown_Line_Type
  70
32
  10
1819131.48
  20
3215834.15
  30
3248
  0
VERTEX
  8
Unknown_Line_Type
  70
32
  10
1819132.32
  20
3215833.46
  30
3248
  0
VERTEX
  8
Unknown_Line_Type
  70
32
  10
1819133.22
  20
3215832.84
  30
3248
  0
VERTEX
  8
Unknown_Line_Type
  70
32
  10
1819134.43
  20
3215832.18
  30
3248
  0
VERTEX
  8
Unknown_Line_Type
  70
32
  10
1819135.73
  20
3215831.62
  30
3248
  0
VERTEX
  8
Unknown_Line_Type
  70
32
  10
1819137.08
  20
3215831.14
  30
3248
  0
VERTEX
  8
Unknown_Line_Type
  70
32
  10
1819140.05
  20
3215830.25
  30
3248
  0
VERTEX
  8
Unknown_Line_Type
  70
32
  10
1819146.28
  20
3215828.64
  30
3248
  0
VERTEX
  8
Unknown_Line_Type
  70
32
  10
1819149.32
  20
3215827.93
  30
3248
  0
VERTEX
  8
Unknown_Line_Type
  70
32
  10
1819152.08
  20
3215827.40
  30
3248
  0
VERTEX
  8
Unknown_Line_Type
  70
32
  10
1819157.64
  20
3215826.58
  30
3248
  0
VERTEX
  8
Unknown_Line_Type
  70
32
  10
1819159.45
  20
3215826.27
  30
3248
  0
VERTEX
  8
Unknown_Line_Type
  70
32
  10
1819161.23
  20
3215825.87
  30
3248
  0
VERTEX
  8
Unknown_Line_Type
  70
32
  10
1819162.94
  20
3215825.34
  30
3248
  0
VERTEX
  8
Unknown_Line_Type
  70
32
  10
1819164.57
  20
3215824.64
  30
3248
  0
VERTEX
  8
Unknown_Line_Type
  70
32
  10
1819166.16
  20
3215823.81
  30
3248
  0
VERTEX
  8
Unknown_Line_Type
  70
32
  10
1819167.71
  20
3215822.90
  30
3248
  0
VERTEX
  8
Unknown_Line_Type
  70
32
  10
1819170.13
  20
3215821.42
  30
3248
  0
VERTEX
  8
Unknown_Line_Type
  70
32
  10
1819172.37
  20
3215819.96
  30
3248
  0
VERTEX
  8
Unknown_Line_Type
  70
32
  10
1819173.71
  20
3215819.00
  30
3248
  0
VERTEX
  8
Unknown_Line_Type
  70
32
  10
1819175.01
  20
3215817.97
  30
3248
  0
VERTEX
  8
Unknown_Line_Type
  70
32
  10
1819176.44
  20
3215816.72
  30
3248
  0
VERTEX
  8
Unknown_Line_Type
  70
32
  10
1819179.25
  20
3215814.16
  30
3248
  0
VERTEX
  8
Unknown_Line_Type
  70
32
  10
1819180.53
  20
3215813.09
  30
3248
  0
VERTEX
  8
Unknown_Line_Type
  70
32
  10
1819181.84
  20
3215812.04
  30
3248
  0
VERTEX
  8
Unknown_Line_Type
  70
32
  10
1819183.18
  20
3215811.03
  30
3248
  0
VERTEX
  8
Unknown_Line_Type
  70
32
  10
1819185.86
  20
3215809.12
  30
3248
  0
VERTEX
  8
Unknown_Line_Type
  70
32
  10
1819187.20
  20
3215808.24
  30
3248
  0
VERTEX
  8
Unknown_Line_Type
  70
32
  10
1819188.57
  20
3215807.42
  30
3248
  0
VERTEX
  8
Unknown_Line_Type
  70
32
  10
1819189.98
  20
3215806.68
  30
3248
  0
VERTEX
  8
Unknown_Line_Type
  70
32
  10
1819191.58
  20
3215805.98
  30
3248
  0
VERTEX
  8
Unknown_Line_Type
  70
32
  10
1819193.22
  20
3215805.38
  30
3248
  0
VERTEX
  8
Unknown_Line_Type
  70
32
  10
1819194.88
  20
3215804.86
  30
3248
  0
VERTEX
  8
Unknown_Line_Type
  70
32
  10
1819196.60
  20
3215804.38
  30
3248
  0
VERTEX
  8
Unknown_Line_Type
  70
32
  10
1819199.98
  20
3215803.56
  30
3248
  0
VERTEX
  8
Unknown_Line_Type
  70
32
  10
1819201.84
  20
3215803.26
  30
3248
  0
VERTEX
  8
Unknown_Line_Type
  70
32
  10
1819203.92
  20
3215803.24
  30
3248
  0
VERTEX
  8
Unknown_Line_Type
  70
32
  10
1819206.16
  20
3215803.59
  30
3248
  0
VERTEX
  8
Unknown_Line_Type
  70
32
  10
1819208.46
  20
3215804.24
  30
3248
  0
VERTEX
  8
Unknown_Line_Type
  70
32
  10
1819210.72
  20
3215805.06
  30
3248
  0
VERTEX
  8
Unknown_Line_Type
  70
32
  10
1819212.85
  20
3215805.95
  30
3248
  0
VERTEX
  8
Unknown_Line_Type
  70
32
  10
1819217.18
  20
3215807.88
  30
3248
  0
VERTEX
  8
Unknown_Line_Type
  70
32
  10
1819217.69
  20
3215808.09
  30
3248
  0
VERTEX
  8
Unknown_Line_Type
  70
32
  10
1819217.88
  20
3215808.13
  30
3248
  0
SEQEND
  8
Unknown_Line_Type
  0
POLYLINE
  8
Unknown_Line_Type
  70
8
  66
1
 62
0
 39
0
  0
VERTEX
  8
Unknown_Line_Type
  70
32
  10
1818958.00
  20
3215887.86
  30
3250
  0
VERTEX
  8
Unknown_Line_Type
  70
32
  10
1818958.28
  20
3215887.93
  30
3250
  0
VERTEX
  8
Unknown_Line_Type
  70
32
  10
1818959.02
  20
3215887.93
  30
3250
  0
VERTEX
  8
Unknown_Line_Type
  70
32
  10
1818960.15
  20
3215887.86
  30
3250
  0
VERTEX
  8
Unknown_Line_Type
  70
32
  10
1818961.59
  20
3215887.68
  30
3250
  0
VERTEX
  8
Unknown_Line_Type
  70
32
  10
1818962.84
  20
3215887.45
  30
3250
  0
VERTEX
  8
Unknown_Line_Type
  70
32
  10
1818964.22
  20
3215887.13
  30
3250
  0
VERTEX
  8
Unknown_Line_Type
  70
32
  10
1818965.68
  20
3215886.73
  30
3250
  0
VERTEX
  8
Unknown_Line_Type
  70
32
  10
1818967.87
  20
3215885.99
  30
3250
  0
VERTEX
  8
Unknown_Line_Type
  70
32
  10
1818970.07
  20
3215885.14
  30
3250
  0
VERTEX
  8
Unknown_Line_Type
  70
32
  10
1818972.22
  20
3215884.20
  30
3250
  0
VERTEX
  8
Unknown_Line_Type
  70
32
  10
1818974.24
  20
3215883.23
  30
3250
  0
VERTEX
  8
Unknown_Line_Type
  70
32
  10
1818976.04
  20
3215882.29
  30
3250
  0
VERTEX
  8
Unknown_Line_Type
  70
32
  10
1818979.63
  20
3215880.29
  30
3250
  0
VERTEX
  8
Unknown_Line_Type
  70
32
  10
1818982.72
  20
3215878.63
  30
3250
  0
VERTEX
  8
Unknown_Line_Type
  70
32
  10
1818984.48
  20
3215877.73
  30
3250
  0
VERTEX
  8
Unknown_Line_Type
  70
32
  10
1818986.26
  20
3215876.88
  30
3250
  0
VERTEX
  8
Unknown_Line_Type
  70
32
  10
1818988.06
  20
3215876.08
  30
3250
  0
VERTEX
  8
Unknown_Line_Type
  70
32
  10
1818989.89
  20
3215875.33
  30
3250
  0
VERTEX
  8
Unknown_Line_Type
  70
32
  10
1818991.38
  20
3215874.78
  30
3250
  0
VERTEX
  8
Unknown_Line_Type
  70
32
  10
1818994.53
  20
3215873.74
  30
3250
  0
VERTEX
  8
Unknown_Line_Type
  70
32
  10
1818996.18
  20
3215873.26
  30
3250
  0
VERTEX
  8
Unknown_Line_Type
  70
32
  10
1818998.26
  20
3215872.70
  30
3250
  0
VERTEX
  8
Unknown_Line_Type
  70
32
  10
1818999.79
  20
3215872.35
  30
3250
  0
VERTEX
  8
Unknown_Line_Type
  70
32
  10
1819001.32
  20
3215872.04
  30
3250
  0
VERTEX
  8
Unknown_Line_Type
  70
32
  10
1819002.86
  20
3215871.76
  30
3250
  0
VERTEX
  8
Unknown_Line_Type
  70
32
  10
1819004.60
  20
3215871.51
  30
3250
  0
VERTEX
  8
Unknown_Line_Type
  70
32
  10
1819011.55
  20
3215870.66
  30
3250
  0
VERTEX
  8
Unknown_Line_Type
  70
32
  10
1819013.44
  20
3215870.39
  30
3250
  0
VERTEX
  8
Unknown_Line_Type
  70
32
  10
1819015.32
  20
3215870.05
  30
3250
  0
VERTEX
  8
Unknown_Line_Type
  70
32
  10
1819016.64
  20
3215869.75
  30
3250
  0
VERTEX
  8
Unknown_Line_Type
  70
32
  10
1819018.40
  20
3215869.25
  30
3250
  0
VERTEX
  8
Unknown_Line_Type
  70
32
  10
1819020.14
  20
3215868.68
  30
3250
  0
VERTEX
  8
Unknown_Line_Type
  70
32
  10
1819023.62
  20
3215867.46
  30
3250
  0
VERTEX
  8
Unknown_Line_Type
  70
32
  10
1819028.00
  20
3215866.01
  30
3250
  0
VERTEX
  8
Unknown_Line_Type
  70
32
  10
1819029.45
  20
3215865.49
  30
3250
  0
VERTEX
  8
Unknown_Line_Type
  70
32
  10
1819031.10
  20
3215864.84
  30
3250
  0
VERTEX
  8
Unknown_Line_Type
  70
32
  10
1819032.73
  20
3215864.13
  30
3250
  0
VERTEX
  8
Unknown_Line_Type
  70
32
  10
1819035.95
  20
3215862.60
  30
3250
  0
VERTEX
  8
Unknown_Line_Type
  70
32
  10
1819040.95
  20
3215860.01
  30
3250
  0
VERTEX
  8
Unknown_Line_Type
  70
32
  10
1819042.66
  20
3215859.16
  30
3250
  0
VERTEX
  8
Unknown_Line_Type
  70
32
  10
1819044.40
  20
3215858.37
  30
3250
  0
VERTEX
  8
Unknown_Line_Type
  70
32
  10
1819045.83
  20
3215857.79
  30
3250
  0
VERTEX
  8
Unknown_Line_Type
  70
32
  10
1819047.28
  20
3215857.28
  30
3250
  0
VERTEX
  8
Unknown_Line_Type
  70
32
  10
1819048.75
  20
3215856.81
  30
3250
  0
VERTEX
  8
Unknown_Line_Type
  70
32
  10
1819053.19
  20
3215855.60
  30
3250
  0
VERTEX
  8
Unknown_Line_Type
  70
32
  10
1819056.56
  20
3215854.74
  30
3250
  0
VERTEX
  8
Unknown_Line_Type
  70
32
  10
1819058.26
  20
3215854.36
  30
3250
  0
VERTEX
  8
Unknown_Line_Type
  70
32
  10
1819059.97
  20
3215854.03
  30
3250
  0
VERTEX
  8
Unknown_Line_Type
  70
32
  10
1819062.66
  20
3215853.66
  30
3250
  0
VERTEX
  8
Unknown_Line_Type
  70
32
  10
1819064.58
  20
3215853.47
  30
3250
  0
VERTEX
  8
Unknown_Line_Type
  70
32
  10
1819066.51
  20
3215853.36
  30
3250
  0
VERTEX
  8
Unknown_Line_Type
  70
32
  10
1819068.44
  20
3215853.31
  30
3250
  0
VERTEX
  8
Unknown_Line_Type
  70
32
  10
1819069.72
  20
3215853.33
  30
3250
  0
VERTEX
  8
Unknown_Line_Type
  70
32
  10
1819071.19
  20
3215853.38
  30
3250
  0
VERTEX
  8
Unknown_Line_Type
  70
32
  10
1819072.66
  20
3215853.48
  30
3250
  0
VERTEX
  8
Unknown_Line_Type
  70
32
  10
1819074.51
  20
3215853.66
  30
3250
  0
VERTEX
  8
Unknown_Line_Type
  70
32
  10
1819078.18
  20
3215854.11
  30
3250
  0
VERTEX
  8
Unknown_Line_Type
  70
32
  10
1819081.01
  20
3215854.39
  30
3250
  0
VERTEX
  8
Unknown_Line_Type
  70
32
  10
1819082.77
  20
3215854.47
  30
3250
  0
VERTEX
  8
Unknown_Line_Type
  70
32
  10
1819084.54
  20
3215854.46
  30
3250
  0
VERTEX
  8
Unknown_Line_Type
  70
32
  10
1819087.43
  20
3215854.30
  30
3250
  0
VERTEX
  8
Unknown_Line_Type
  70
32
  10
1819089.36
  20
3215854.13
  30
3250
  0
VERTEX
  8
Unknown_Line_Type
  70
32
  10
1819093.22
  20
3215853.73
  30
3250
  0
VERTEX
  8
Unknown_Line_Type
  70
32
  10
1819100.12
  20
3215852.87
  30
3250
  0
VERTEX
  8
Unknown_Line_Type
  70
32
  10
1819102.13
  20
3215852.64
  30
3250
  0
VERTEX
  8
Unknown_Line_Type
  70
32
  10
1819103.85
  20
3215852.40
  30
3250
  0
VERTEX
  8
Unknown_Line_Type
  70
32
  10
1819106.18
  20
3215852.01
  30
3250
  0
VERTEX
  8
Unknown_Line_Type
  70
32
  10
1819109.61
  20
3215851.30
  30
3250
  0
VERTEX
  8
Unknown_Line_Type
  70
32
  10
1819113.05
  20
3215850.48
  30
3250
  0
VERTEX
  8
Unknown_Line_Type
  70
32
  10
1819116.46
  20
3215849.54
  30
3250
  0
VERTEX
  8
Unknown_Line_Type
  70
32
  10
1819118.15
  20
3215849.02
  30
3250
  0
VERTEX
  8
Unknown_Line_Type
  70
32
  10
1819119.85
  20
3215848.44
  30
3250
  0
VERTEX
  8
Unknown_Line_Type
  70
32
  10
1819121.52
  20
3215847.79
  30
3250
  0
VERTEX
  8
Unknown_Line_Type
  70
32
  10
1819123.10
  20
3215847.09
  30
3250
  0
VERTEX
  8
Unknown_Line_Type
  70
32
  10
1819124.65
  20
3215846.32
  30
3250
  0
VERTEX
  8
Unknown_Line_Type
  70
32
  10
1819126.17
  20
3215845.50
  30
3250
  0
VERTEX
  8
Unknown_Line_Type
  70
32
  10
1819127.68
  20
3215844.64
  30
3250
  0
VERTEX
  8
Unknown_Line_Type
  70
32
  10
1819132.08
  20
3215841.98
  30
3250
  0
VERTEX
  8
Unknown_Line_Type
  70
32
  10
1819133.55
  20
3215841.12
  30
3250
  0
VERTEX
  8
Unknown_Line_Type
  70
32
  10
1819135.04
  20
3215840.30
  30
3250
  0
VERTEX
  8
Unknown_Line_Type
  70
32
  10
1819136.77
  20
3215839.45
  30
3250
  0
VERTEX
  8
Unknown_Line_Type
  70
32
  10
1819142.15
  20
3215837.04
  30
3250
  0
VERTEX
  8
Unknown_Line_Type
  70
32
  10
1819143.80
  20
3215836.40
  30
3250
  0
VERTEX
  8
Unknown_Line_Type
  70
32
  10
1819145.48
  20
3215835.82
  30
3250
  0
VERTEX
  8
Unknown_Line_Type
  70
32
  10
1819147.20
  20
3215835.32
  30
3250
  0
VERTEX
  8
Unknown_Line_Type
  70
32
  10
1819148.95
  20
3215834.89
  30
3250
  0
VERTEX
  8
Unknown_Line_Type
  70
32
  10
1819150.85
  20
3215834.53
  30
3250
  0
VERTEX
  8
Unknown_Line_Type
  70
32
  10
1819152.77
  20
3215834.25
  30
3250
  0
VERTEX
  8
Unknown_Line_Type
  70
32
  10
1819154.71
  20
3215834.03
  30
3250
  0
VERTEX
  8
Unknown_Line_Type
  70
32
  10
1819156.42
  20
3215833.87
  30
3250
  0
VERTEX
  8
Unknown_Line_Type
  70
32
  10
1819159.85
  20
3215833.61
  30
3250
  0
VERTEX
  8
Unknown_Line_Type
  70
32
  10
1819163.48
  20
3215833.44
  30
3250
  0
VERTEX
  8
Unknown_Line_Type
  70
32
  10
1819169.17
  20
3215833.21
  30
3250
  0
VERTEX
  8
Unknown_Line_Type
  70
32
  10
1819172.16
  20
3215833.02
  30
3250
  0
VERTEX
  8
Unknown_Line_Type
  70
32
  10
1819174.79
  20
3215832.77
  30
3250
  0
VERTEX
  8
Unknown_Line_Type
  70
32
  10
1819176.31
  20
3215832.58
  30
3250
  0
VERTEX
  8
Unknown_Line_Type
  70
32
  10
1819177.82
  20
3215832.35
  30
3250
  0
VERTEX
  8
Unknown_Line_Type
  70
32
  10
1819179.31
  20
3215832.05
  30
3250
  0
VERTEX
  8
Unknown_Line_Type
  70
32
  10
1819180.78
  20
3215831.69
  30
3250
  0
VERTEX
  8
Unknown_Line_Type
  70
32
  10
1819187.27
  20
3215829.85
  30
3250
  0
VERTEX
  8
Unknown_Line_Type
  70
32
  10
1819189.34
  20
3215829.24
  30
3250
  0
VERTEX
  8
Unknown_Line_Type
  70
32
  10
1819191.56
  20
3215828.52
  30
3250
  0
VERTEX
  8
Unknown_Line_Type
  70
32
  10
1819193.84
  20
3215827.71
  30
3250
  0
VERTEX
  8
Unknown_Line_Type
  70
32
  10
1819195.55
  20
3215827.04
  30
3250
  0
VERTEX
  8
Unknown_Line_Type
  70
32
  10
1819197.21
  20
3215826.35
  30
3250
  0
VERTEX
  8
Unknown_Line_Type
  70
32
  10
1819199.95
  20
3215825.10
  30
3250
  0
VERTEX
  8
Unknown_Line_Type
  70
32
  10
1819202.30
  20
3215823.91
  30
3250
  0
VERTEX
  8
Unknown_Line_Type
  70
32
  10
1819203.27
  20
3215823.37
  30
3250
  0
VERTEX
  8
Unknown_Line_Type
  70
32
  10
1819204.10
  20
3215822.87
  30
3250
  0
SEQEND
  8
Unknown_Line_Type
  0
POLYLINE
  8
Unknown_Line_Type
  70
8
  66
1
 62
0
 39
0
  0
VERTEX
  8
Unknown_Line_Type
  70
32
  10
1818958.00
  20
3215891.35
  30
3252
  0
VERTEX
  8
Unknown_Line_Type
  70
32
  10
1818958.35
  20
3215891.38
  30
3252
  0
VERTEX
  8
Unknown_Line_Type
  70
32
  10
1818959.10
  20
3215891.37
  30
3252
  0
VERTEX
  8
Unknown_Line_Type
  70
32
  10
1818960.20
  20
3215891.29
  30
3252
  0
VERTEX
  8
Unknown_Line_Type
  70
32
  10
1818961.84
  20
3215891.10
  30
3252
  0
VERTEX
  8
Unknown_Line_Type
  70
32
  10
1818963.78
  20
3215890.77
  30
3252
  0
VERTEX
  8
Unknown_Line_Type
  70
32
  10
1818965.95
  20
3215890.27
  30
3252
  0
VERTEX
  8
Unknown_Line_Type
  70
32
  10
1818968.23
  20
3215889.61
  30
3252
  0
VERTEX
  8
Unknown_Line_Type
  70
32
  10
1818970.53
  20
3215888.82
  30
3252
  0
VERTEX
  8
Unknown_Line_Type
  70
32
  10
1818972.75
  20
3215887.95
  30
3252
  0
VERTEX
  8
Unknown_Line_Type
  70
32
  10
1818974.57
  20
3215887.14
  30
3252
  0
VERTEX
  8
Unknown_Line_Type
  70
32
  10
1818976.20
  20
3215886.34
  30
3252
  0
VERTEX
  8
Unknown_Line_Type
  70
32
  10
1818983.71
  20
3215882.24
  30
3252
  0
VERTEX
  8
Unknown_Line_Type
  70
32
  10
1818986.19
  20
3215880.98
  30
3252
  0
VERTEX
  8
Unknown_Line_Type
  70
32
  10
1818988.31
  20
3215880.00
  30
3252
  0
VERTEX
  8
Unknown_Line_Type
  70
32
  10
1818990.96
  20
3215878.93
  30
3252
  0
VERTEX
  8
Unknown_Line_Type
  70
32
  10
1818994.56
  20
3215877.63
  30
3252
  0
VERTEX
  8
Unknown_Line_Type
  70
32
  10
1818998.20
  20
3215876.45
  30
3252
  0
VERTEX
  8
Unknown_Line_Type
  70
32
  10
1819001.06
  20
3215875.62
  30
3252
  0
VERTEX
  8
Unknown_Line_Type
  70
32
  10
1819002.50
  20
3215875.25
  30
3252
  0
VERTEX
  8
Unknown_Line_Type
  70
32
  10
1819003.95
  20
3215874.92
  30
3252
  0
VERTEX
  8
Unknown_Line_Type
  70
32
  10
1819005.42
  20
3215874.64
  30
3252
  0
VERTEX
  8
Unknown_Line_Type
  70
32
  10
1819006.80
  20
3215874.43
  30
3252
  0
VERTEX
  8
Unknown_Line_Type
  70
32
  10
1819009.90
  20
3215874.08
  30
3252
  0
VERTEX
  8
Unknown_Line_Type
  70
32
  10
1819016.76
  20
3215873.54
  30
3252
  0
VERTEX
  8
Unknown_Line_Type
  70
32
  10
1819018.47
  20
3215873.37
  30
3252
  0
VERTEX
  8
Unknown_Line_Type
  70
32
  10
1819020.28
  20
3215873.15
  30
3252
  0
VERTEX
  8
Unknown_Line_Type
  70
32
  10
1819022.08
  20
3215872.86
  30
3252
  0
VERTEX
  8
Unknown_Line_Type
  70
32
  10
1819026.32
  20
3215872.01
  30
3252
  0
VERTEX
  8
Unknown_Line_Type
  70
32
  10
1819029.53
  20
3215871.32
  30
3252
  0
VERTEX
  8
Unknown_Line_Type
  70
32
  10
1819031.12
  20
3215870.94
  30
3252
  0
VERTEX
  8
Unknown_Line_Type
  70
32
  10
1819032.70
  20
3215870.52
  30
3252
  0
VERTEX
  8
Unknown_Line_Type
  70
32
  10
1819034.36
  20
3215870.01
  30
3252
  0
VERTEX
  8
Unknown_Line_Type
  70
32
  10
1819036.00
  20
3215869.45
  30
3252
  0
VERTEX
  8
Unknown_Line_Type
  70
32
  10
1819038.54
  20
3215868.44
  30
3252
  0
VERTEX
  8
Unknown_Line_Type
  70
32
  10
1819039.45
  20
3215868.02
  30
3252
  0
VERTEX
  8
Unknown_Line_Type
  70
32
  10
1819040.86
  20
3215867.28
  30
3252
  0
VERTEX
  8
Unknown_Line_Type
  70
32
  10
1819042.23
  20
3215866.45
  30
3252
  0
VERTEX
  8
Unknown_Line_Type
  70
32
  10
1819046.84
  20
3215863.47
  30
3252
  0
VERTEX
  8
Unknown_Line_Type
  70
32
  10
1819048.49
  20
3215862.45
  30
3252
  0
VERTEX
  8
Unknown_Line_Type
  70
32
  10
1819050.17
  20
3215861.49
  30
3252
  0
VERTEX
  8
Unknown_Line_Type
  70
32
  10
1819051.89
  20
3215860.61
  30
3252
  0
VERTEX
  8
Unknown_Line_Type
  70
32
  10
1819053.26
  20
3215860.01
  30
3252
  0
VERTEX
  8
Unknown_Line_Type
  70
32
  10
1819054.65
  20
3215859.49
  30
3252
  0
VERTEX
  8
Unknown_Line_Type
  70
32
  10
1819056.07
  20
3215859.05
  30
3252
  0
VERTEX
  8
Unknown_Line_Type
  70
32
  10
1819057.51
  20
3215858.68
  30
3252
  0
VERTEX
  8
Unknown_Line_Type
  70
32
  10
1819059.19
  20
3215858.35
  30
3252
  0
VERTEX
  8
Unknown_Line_Type
  70
32
  10
1819060.88
  20
3215858.12
  30
3252
  0
VERTEX
  8
Unknown_Line_Type
  70
32
  10
1819062.21
  20
3215857.97
  30
3252
  0
VERTEX
  8
Unknown_Line_Type
  70
32
  10
1819064.88
  20
3215857.78
  30
3252
  0
VERTEX
  8
Unknown_Line_Type
  70
32
  10
1819066.81
  20
3215857.71
  30
3252
  0
VERTEX
  8
Unknown_Line_Type
  70
32
  10
1819068.73
  20
3215857.68
  30
3252
  0
VERTEX
  8
Unknown_Line_Type
  70
32
  10
1819070.66
  20
3215857.71
  30
3252
  0
VERTEX
  8
Unknown_Line_Type
  70
32
  10
1819075.49
  20
3215857.91
  30
3252
  0
VERTEX
  8
Unknown_Line_Type
  70
32
  10
1819077.35
  20
3215857.93
  30
3252
  0
VERTEX
  8
Unknown_Line_Type
  70
32
  10
1819081.03
  20
3215857.85
  30
3252
  0
VERTEX
  8
Unknown_Line_Type
  70
32
  10
1819085.98
  20
3215857.57
  30
3252
  0
VERTEX
  8
Unknown_Line_Type
  70
32
  10
1819095.86
  20
3215856.85
  30
3252
  0
VERTEX
  8
Unknown_Line_Type
  70
32
  10
1819099.24
  20
3215856.68
  30
3252
  0
VERTEX
  8
Unknown_Line_Type
  70
32
  10
1819102.58
  20
3215856.57
  30
3252
  0
VERTEX
  8
Unknown_Line_Type
  70
32
  10
1819104.12
  20
3215856.46
  30
3252
  0
VERTEX
  8
Unknown_Line_Type
  70
32
  10
1819105.88
  20
3215856.26
  30
3252
  0
VERTEX
  8
Unknown_Line_Type
  70
32
  10
1819107.63
  20
3215856.00
  30
3252
  0
VERTEX
  8
Unknown_Line_Type
  70
32
  10
1819109.38
  20
3215855.69
  30
3252
  0
VERTEX
  8
Unknown_Line_Type
  70
32
  10
1819112.89
  20
3215854.99
  30
3252
  0
VERTEX
  8
Unknown_Line_Type
  70
32
  10
1819118.12
  20
3215853.80
  30
3252
  0
VERTEX
  8
Unknown_Line_Type
  70
32
  10
1819121.68
  20
3215852.92
  30
3252
  0
VERTEX
  8
Unknown_Line_Type
  70
32
  10
1819123.10
  20
3215852.52
  30
3252
  0
VERTEX
  8
Unknown_Line_Type
  70
32
  10
1819124.90
  20
3215851.91
  30
3252
  0
VERTEX
  8
Unknown_Line_Type
  70
32
  10
1819130.84
  20
3215849.63
  30
3252
  0
VERTEX
  8
Unknown_Line_Type
  70
32
  10
1819133.98
  20
3215848.54
  30
3252
  0
VERTEX
  8
Unknown_Line_Type
  70
32
  10
1819135.70
  20
3215848.00
  30
3252
  0
VERTEX
  8
Unknown_Line_Type
  70
32
  10
1819137.42
  20
3215847.49
  30
3252
  0
VERTEX
  8
Unknown_Line_Type
  70
32
  10
1819140.87
  20
3215846.54
  30
3252
  0
VERTEX
  8
Unknown_Line_Type
  70
32
  10
1819146.04
  20
3215845.23
  30
3252
  0
VERTEX
  8
Unknown_Line_Type
  70
32
  10
1819147.36
  20
3215844.88
  30
3252
  0
VERTEX
  8
Unknown_Line_Type
  70
32
  10
1819149.57
  20
3215844.22
  30
3252
  0
VERTEX
  8
Unknown_Line_Type
  70
32
  10
1819151.22
  20
3215843.77
  30
3252
  0
VERTEX
  8
Unknown_Line_Type
  70
32
  10
1819152.91
  20
3215843.36
  30
3252
  0
VERTEX
  8
Unknown_Line_Type
  70
32
  10
1819154.62
  20
3215843.00
  30
3252
  0
VERTEX
  8
Unknown_Line_Type
  70
32
  10
1819156.35
  20
3215842.68
  30
3252
  0
VERTEX
  8
Unknown_Line_Type
  70
32
  10
1819158.14
  20
3215842.40
  30
3252
  0
VERTEX
  8
Unknown_Line_Type
  70
32
  10
1819166.20
  20
3215841.30
  30
3252
  0
VERTEX
  8
Unknown_Line_Type
  70
32
  10
1819171.56
  20
3215840.41
  30
3252
  0
VERTEX
  8
Unknown_Line_Type
  70
32
  10
1819172.91
  20
3215840.22
  30
3252
  0
VERTEX
  8
Unknown_Line_Type
  70
32
  10
1819176.83
  20
3215839.77
  30
3252
  0
VERTEX
  8
Unknown_Line_Type
  70
32
  10
1819179.35
  20
3215839.55
  30
3252
  0
VERTEX
  8
Unknown_Line_Type
  70
32
  10
1819187.37
  20
3215838.96
  30
3252
  0
VERTEX
  8
Unknown_Line_Type
  70
32
  10
1819188.38
  20
3215838.84
  30
3252
  0
VERTEX
  8
Unknown_Line_Type
  70
32
  10
1819189.15
  20
3215838.70
  30
3252
  0
VERTEX
  8
Unknown_Line_Type
  70
32
  10
1819189.41
  20
3215838.58
  30
3252
  0
SEQEND
  8
Unknown_Line_Type
  0
POLYLINE
  8
Unknown_Line_Type
  70
8
  66
1
 62
0
 39
0
  0
VERTEX
  8
Unknown_Line_Type
  70
32
  10
1818958.00
  20
3215894.90
  30
3254
  0
VERTEX
  8
Unknown_Line_Type
  70
32
  10
1818959.08
  20
3215894.84
  30
3254
  0
VERTEX
  8
Unknown_Line_Type
  70
32
  10
1818961.48
  20
3215894.59
  30
3254
  0
VERTEX
  8
Unknown_Line_Type
  70
32
  10
1818963.03
  20
3215894.36
  30
3254
  0
VERTEX
  8
Unknown_Line_Type
  70
32
  10
1818964.76
  20
3215894.04
  30
3254
  0
VERTEX
  8
Unknown_Line_Type
  70
32
  10
1818966.89
  20
3215893.53
  30
3254
  0
VERTEX
  8
Unknown_Line_Type
  70
32
  10
1818969.09
  20
3215892.91
  30
3254
  0
VERTEX
  8
Unknown_Line_Type
  70
32
  10
1818971.29
  20
3215892.20
  30
3254
  0
VERTEX
  8
Unknown_Line_Type
  70
32
  10
1818973.40
  20
3215891.44
  30
3254
  0
VERTEX
  8
Unknown_Line_Type
  70
32
  10
1818975.35
  20
3215890.66
  30
3254
  0
VERTEX
  8
Unknown_Line_Type
  70
32
  10
1818977.06
  20
3215889.89
  30
3254
  0
VERTEX
  8
Unknown_Line_Type
  70
32
  10
1818985.52
  20
3215885.73
  30
3254
  0
VERTEX
  8
Unknown_Line_Type
  70
32
  10
1818990.79
  20
3215883.32
  30
3254
  0
VERTEX
  8
Unknown_Line_Type
  70
32
  10
1818993.74
  20
3215882.11
  30
3254
  0
VERTEX
  8
Unknown_Line_Type
  70
32
  10
1818995.36
  20
3215881.51
  30
3254
  0
VERTEX
  8
Unknown_Line_Type
  70
32
  10
1818996.99
  20
3215880.94
  30
3254
  0
VERTEX
  8
Unknown_Line_Type
  70
32
  10
1819000.27
  20
3215879.88
  30
3254
  0
VERTEX
  8
Unknown_Line_Type
  70
32
  10
1819002.08
  20
3215879.35
  30
3254
  0
VERTEX
  8
Unknown_Line_Type
  70
32
  10
1819003.89
  20
3215878.88
  30
3254
  0
VERTEX
  8
Unknown_Line_Type
  70
32
  10
1819005.72
  20
3215878.48
  30
3254
  0
VERTEX
  8
Unknown_Line_Type
  70
32
  10
1819007.40
  20
3215878.18
  30
3254
  0
VERTEX
  8
Unknown_Line_Type
  70
32
  10
1819011.55
  20
3215877.56
  30
3254
  0
VERTEX
  8
Unknown_Line_Type
  70
32
  10
1819014.65
  20
3215877.17
  30
3254
  0
VERTEX
  8
Unknown_Line_Type
  70
32
  10
1819016.37
  20
3215877.01
  30
3254
  0
VERTEX
  8
Unknown_Line_Type
  70
32
  10
1819024.40
  20
3215876.43
  30
3254
  0
VERTEX
  8
Unknown_Line_Type
  70
32
  10
1819028.18
  20
3215876.06
  30
3254
  0
VERTEX
  8
Unknown_Line_Type
  70
32
  10
1819030.06
  20
3215875.81
  30
3254
  0
VERTEX
  8
Unknown_Line_Type
  70
32
  10
1819031.91
  20
3215875.49
  30
3254
  0
VERTEX
  8
Unknown_Line_Type
  70
32
  10
1819033.41
  20
3215875.16
  30
3254
  0
VERTEX
  8
Unknown_Line_Type
  70
32
  10
1819034.89
  20
3215874.77
  30
3254
  0
VERTEX
  8
Unknown_Line_Type
  70
32
  10
1819036.35
  20
3215874.33
  30
3254
  0
VERTEX
  8
Unknown_Line_Type
  70
32
  10
1819037.80
  20
3215873.84
  30
3254
  0
VERTEX
  8
Unknown_Line_Type
  70
32
  10
1819039.45
  20
3215873.22
  30
3254
  0
VERTEX
  8
Unknown_Line_Type
  70
32
  10
1819041.07
  20
3215872.57
  30
3254
  0
VERTEX
  8
Unknown_Line_Type
  70
32
  10
1819043.72
  20
3215871.45
  30
3254
  0
VERTEX
  8
Unknown_Line_Type
  70
32
  10
1819044.77
  20
3215870.97
  30
3254
  0
VERTEX
  8
Unknown_Line_Type
  70
32
  10
1819046.38
  20
3215870.16
  30
3254
  0
VERTEX
  8
Unknown_Line_Type
  70
32
  10
1819049.56
  20
3215868.49
  30
3254
  0
VERTEX
  8
Unknown_Line_Type
  70
32
  10
1819051.18
  20
3215867.75
  30
3254
  0
VERTEX
  8
Unknown_Line_Type
  70
32
  10
1819052.46
  20
3215867.27
  30
3254
  0
VERTEX
  8
Unknown_Line_Type
  70
32
  10
1819053.77
  20
3215866.85
  30
3254
  0
VERTEX
  8
Unknown_Line_Type
  70
32
  10
1819055.09
  20
3215866.48
  30
3254
  0
VERTEX
  8
Unknown_Line_Type
  70
32
  10
1819058.76
  20
3215865.54
  30
3254
  0
VERTEX
  8
Unknown_Line_Type
  70
32
  10
1819063.67
  20
3215864.04
  30
3254
  0
VERTEX
  8
Unknown_Line_Type
  70
32
  10
1819065.52
  20
3215863.57
  30
3254
  0
VERTEX
  8
Unknown_Line_Type
  70
32
  10
1819067.41
  20
3215863.17
  30
3254
  0
VERTEX
  8
Unknown_Line_Type
  70
32
  10
1819073.45
  20
3215862.00
  30
3254
  0
VERTEX
  8
Unknown_Line_Type
  70
32
  10
1819076.57
  20
3215861.49
  30
3254
  0
VERTEX
  8
Unknown_Line_Type
  70
32
  10
1819079.30
  20
3215861.14
  30
3254
  0
VERTEX
  8
Unknown_Line_Type
  70
32
  10
1819084.35
  20
3215860.62
  30
3254
  0
VERTEX
  8
Unknown_Line_Type
  70
32
  10
1819092.52
  20
3215859.93
  30
3254
  0
VERTEX
  8
Unknown_Line_Type
  70
32
  10
1819097.52
  20
3215859.61
  30
3254
  0
VERTEX
  8
Unknown_Line_Type
  70
32
  10
1819102.64
  20
3215859.43
  30
3254
  0
VERTEX
  8
Unknown_Line_Type
  70
32
  10
1819104.19
  20
3215859.33
  30
3254
  0
VERTEX
  8
Unknown_Line_Type
  70
32
  10
1819105.74
  20
3215859.20
  30
3254
  0
VERTEX
  8
Unknown_Line_Type
  70
32
  10
1819108.95
  20
3215858.79
  30
3254
  0
VERTEX
  8
Unknown_Line_Type
  70
32
  10
1819113.93
  20
3215858.04
  30
3254
  0
VERTEX
  8
Unknown_Line_Type
  70
32
  10
1819117.24
  20
3215857.59
  30
3254
  0
VERTEX
  8
Unknown_Line_Type
  70
32
  10
1819123.81
  20
3215856.96
  30
3254
  0
VERTEX
  8
Unknown_Line_Type
  70
32
  10
1819125.55
  20
3215856.74
  30
3254
  0
VERTEX
  8
Unknown_Line_Type
  70
32
  10
1819127.28
  20
3215856.46
  30
3254
  0
VERTEX
  8
Unknown_Line_Type
  70
32
  10
1819128.76
  20
3215856.16
  30
3254
  0
VERTEX
  8
Unknown_Line_Type
  70
32
  10
1819131.33
  20
3215855.55
  30
3254
  0
VERTEX
  8
Unknown_Line_Type
  70
32
  10
1819132.43
  20
3215855.26
  30
3254
  0
VERTEX
  8
Unknown_Line_Type
  70
32
  10
1819134.23
  20
3215854.74
  30
3254
  0
VERTEX
  8
Unknown_Line_Type
  70
32
  10
1819137.82
  20
3215853.63
  30
3254
  0
VERTEX
  8
Unknown_Line_Type
  70
32
  10
1819139.21
  20
3215853.24
  30
3254
  0
VERTEX
  8
Unknown_Line_Type
  70
32
  10
1819142.25
  20
3215852.50
  30
3254
  0
VERTEX
  8
Unknown_Line_Type
  70
32
  10
1819143.88
  20
3215852.17
  30
3254
  0
VERTEX
  8
Unknown_Line_Type
  70
32
  10
1819145.52
  20
3215851.88
  30
3254
  0
VERTEX
  8
Unknown_Line_Type
  70
32
  10
1819147.17
  20
3215851.64
  30
3254
  0
VERTEX
  8
Unknown_Line_Type
  70
32
  10
1819153.40
  20
3215850.93
  30
3254
  0
VERTEX
  8
Unknown_Line_Type
  70
32
  10
1819155.33
  20
3215850.65
  30
3254
  0
VERTEX
  8
Unknown_Line_Type
  70
32
  10
1819157.26
  20
3215850.31
  30
3254
  0
VERTEX
  8
Unknown_Line_Type
  70
32
  10
1819161.10
  20
3215849.51
  30
3254
  0
VERTEX
  8
Unknown_Line_Type
  70
32
  10
1819170.91
  20
3215847.11
  30
3254
  0
VERTEX
  8
Unknown_Line_Type
  70
32
  10
1819172.96
  20
3215846.66
  30
3254
  0
VERTEX
  8
Unknown_Line_Type
  70
32
  10
1819175.18
  20
3215846.23
  30
3254
  0
VERTEX
  8
Unknown_Line_Type
  70
32
  10
1819177.28
  20
3215845.88
  30
3254
  0
VERTEX
  8
Unknown_Line_Type
  70
32
  10
1819179.16
  20
3215845.62
  30
3254
  0
VERTEX
  8
Unknown_Line_Type
  70
32
  10
1819180.76
  20
3215845.45
  30
3254
  0
VERTEX
  8
Unknown_Line_Type
  70
32
  10
1819181.85
  20
3215845.39
  30
3254
  0
VERTEX
  8
Unknown_Line_Type
  70
32
  10
1819182.60
  20
3215845.38
  30
3254
  0
VERTEX
  8
Unknown_Line_Type
  70
32
  10
1819182.89
  20
3215845.41
  30
3254
  0
VERTEX
  8
Unknown_Line_Type
  70
32
  10
1819182.99
  20
3215845.45
  30
3254
  0
SEQEND
  8
Unknown_Line_Type
  0
POLYLINE
  8
Unknown_Line_Type
  70
8
  66
1
 62
0
 39
0
  0
VERTEX
  8
Unknown_Line_Type
  70
32
  10
1818958.00
  20
3215898.76
  30
3256
  0
VERTEX
  8
Unknown_Line_Type
  70
32
  10
1818958.08
  20
3215898.70
  30
3256
  0
VERTEX
  8
Unknown_Line_Type
  70
32
  10
1818958.20
  20
3215898.67
  30
3256
  0
VERTEX
  8
Unknown_Line_Type
  70
32
  10
1818958.91
  20
3215898.58
  30
3256
  0
VERTEX
  8
Unknown_Line_Type
  70
32
  10
1818962.72
  20
3215898.30
  30
3256
  0
VERTEX
  8
Unknown_Line_Type
  70
32
  10
1818964.60
  20
3215898.11
  30
3256
  0
VERTEX
  8
Unknown_Line_Type
  70
32
  10
1818966.63
  20
3215897.82
  30
3256
  0
VERTEX
  8
Unknown_Line_Type
  70
32
  10
1818968.72
  20
3215897.42
  30
3256
  0
VERTEX
  8
Unknown_Line_Type
  70
32
  10
1818971.15
  20
3215896.83
  30
3256
  0
VERTEX
  8
Unknown_Line_Type
  70
32
  10
1818973.47
  20
3215896.13
  30
3256
  0
VERTEX
  8
Unknown_Line_Type
  70
32
  10
1818975.60
  20
3215895.37
  30
3256
  0
VERTEX
  8
Unknown_Line_Type
  70
32
  10
1818977.44
  20
3215894.60
  30
3256
  0
VERTEX
  8
Unknown_Line_Type
  70
32
  10
1818982.07
  20
3215892.51
  30
3256
  0
VERTEX
  8
Unknown_Line_Type
  70
32
  10
1818987.40
  20
3215890.21
  30
3256
  0
VERTEX
  8
Unknown_Line_Type
  70
32
  10
1818989.17
  20
3215889.42
  30
3256
  0
VERTEX
  8
Unknown_Line_Type
  70
32
  10
1818993.79
  20
3215887.24
  30
3256
  0
VERTEX
  8
Unknown_Line_Type
  70
32
  10
1818996.87
  20
3215885.84
  30
3256
  0
VERTEX
  8
Unknown_Line_Type
  70
32
  10
1818998.43
  20
3215885.20
  30
3256
  0
VERTEX
  8
Unknown_Line_Type
  70
32
  10
1819000.00
  20
3215884.62
  30
3256
  0
VERTEX
  8
Unknown_Line_Type
  70
32
  10
1819001.23
  20
3215884.23
  30
3256
  0
VERTEX
  8
Unknown_Line_Type
  70
32
  10
1819002.48
  20
3215883.90
  30
3256
  0
VERTEX
  8
Unknown_Line_Type
  70
32
  10
1819004.13
  20
3215883.55
  30
3256
  0
VERTEX
  8
Unknown_Line_Type
  70
32
  10
1819005.73
  20
3215883.32
  30
3256
  0
VERTEX
  8
Unknown_Line_Type
  70
32
  10
1819007.34
  20
3215883.16
  30
3256
  0
VERTEX
  8
Unknown_Line_Type
  70
32
  10
1819012.10
  20
3215882.86
  30
3256
  0
VERTEX
  8
Unknown_Line_Type
  70
32
  10
1819013.89
  20
3215882.70
  30
3256
  0
VERTEX
  8
Unknown_Line_Type
  70
32
  10
1819015.69
  20
3215882.49
  30
3256
  0
VERTEX
  8
Unknown_Line_Type
  70
32
  10
1819022.45
  20
3215881.54
  30
3256
  0
VERTEX
  8
Unknown_Line_Type
  70
32
  10
1819025.86
  20
3215881.09
  30
3256
  0
VERTEX
  8
Unknown_Line_Type
  70
32
  10
1819033.24
  20
3215880.34
  30
3256
  0
VERTEX
  8
Unknown_Line_Type
  70
32
  10
1819035.07
  20
3215880.10
  30
3256
  0
VERTEX
  8
Unknown_Line_Type
  70
32
  10
1819036.89
  20
3215879.80
  30
3256
  0
VERTEX
  8
Unknown_Line_Type
  70
32
  10
1819038.60
  20
3215879.43
  30
3256
  0
VERTEX
  8
Unknown_Line_Type
  70
32
  10
1819040.29
  20
3215878.99
  30
3256
  0
VERTEX
  8
Unknown_Line_Type
  70
32
  10
1819041.97
  20
3215878.49
  30
3256
  0
VERTEX
  8
Unknown_Line_Type
  70
32
  10
1819043.54
  20
3215877.99
  30
3256
  0
VERTEX
  8
Unknown_Line_Type
  70
32
  10
1819048.48
  20
3215876.36
  30
3256
  0
VERTEX
  8
Unknown_Line_Type
  70
32
  10
1819050.29
  20
3215875.81
  30
3256
  0
VERTEX
  8
Unknown_Line_Type
  70
32
  10
1819057.26
  20
3215873.88
  30
3256
  0
VERTEX
  8
Unknown_Line_Type
  70
32
  10
1819059.60
  20
3215873.12
  30
3256
  0
VERTEX
  8
Unknown_Line_Type
  70
32
  10
1819061.23
  20
3215872.47
  30
3256
  0
VERTEX
  8
Unknown_Line_Type
  70
32
  10
1819062.82
  20
3215871.74
  30
3256
  0
VERTEX
  8
Unknown_Line_Type
  70
32
  10
1819068.21
  20
3215869.10
  30
3256
  0
VERTEX
  8
Unknown_Line_Type
  70
32
  10
1819074.01
  20
3215866.60
  30
3256
  0
VERTEX
  8
Unknown_Line_Type
  70
32
  10
1819075.75
  20
3215865.92
  30
3256
  0
VERTEX
  8
Unknown_Line_Type
  70
32
  10
1819077.51
  20
3215865.30
  30
3256
  0
VERTEX
  8
Unknown_Line_Type
  70
32
  10
1819079.58
  20
3215864.70
  30
3256
  0
VERTEX
  8
Unknown_Line_Type
  70
32
  10
1819081.38
  20
3215864.28
  30
3256
  0
VERTEX
  8
Unknown_Line_Type
  70
32
  10
1819083.20
  20
3215863.92
  30
3256
  0
VERTEX
  8
Unknown_Line_Type
  70
32
  10
1819085.15
  20
3215863.61
  30
3256
  0
VERTEX
  8
Unknown_Line_Type
  70
32
  10
1819087.10
  20
3215863.35
  30
3256
  0
VERTEX
  8
Unknown_Line_Type
  70
32
  10
1819091.04
  20
3215862.94
  30
3256
  0
VERTEX
  8
Unknown_Line_Type
  70
32
  10
1819095.77
  20
3215862.58
  30
3256
  0
VERTEX
  8
Unknown_Line_Type
  70
32
  10
1819102.68
  20
3215862.28
  30
3256
  0
VERTEX
  8
Unknown_Line_Type
  70
32
  10
1819104.64
  20
3215862.17
  30
3256
  0
VERTEX
  8
Unknown_Line_Type
  70
32
  10
1819106.59
  20
3215862.01
  30
3256
  0
VERTEX
  8
Unknown_Line_Type
  70
32
  10
1819111.85
  20
3215861.50
  30
3256
  0
VERTEX
  8
Unknown_Line_Type
  70
32
  10
1819114.52
  20
3215861.29
  30
3256
  0
VERTEX
  8
Unknown_Line_Type
  70
32
  10
1819116.64
  20
3215861.19
  30
3256
  0
VERTEX
  8
Unknown_Line_Type
  70
32
  10
1819120.58
  20
3215861.15
  30
3256
  0
VERTEX
  8
Unknown_Line_Type
  70
32
  10
1819131.14
  20
3215861.35
  30
3256
  0
VERTEX
  8
Unknown_Line_Type
  70
32
  10
1819132.47
  20
3215861.33
  30
3256
  0
VERTEX
  8
Unknown_Line_Type
  70
32
  10
1819133.79
  20
3215861.27
  30
3256
  0
VERTEX
  8
Unknown_Line_Type
  70
32
  10
1819135.06
  20
3215861.16
  30
3256
  0
VERTEX
  8
Unknown_Line_Type
  70
32
  10
1819136.32
  20
3215861.00
  30
3256
  0
VERTEX
  8
Unknown_Line_Type
  70
32
  10
1819137.97
  20
3215860.70
  30
3256
  0
VERTEX
  8
Unknown_Line_Type
  70
32
  10
1819146.09
  20
3215858.89
  30
3256
  0
VERTEX
  8
Unknown_Line_Type
  70
32
  10
1819147.74
  20
3215858.49
  30
3256
  0
VERTEX
  8
Unknown_Line_Type
  70
32
  10
1819152.20
  20
3215857.31
  30
3256
  0
VERTEX
  8
Unknown_Line_Type
  70
32
  10
1819153.42
  20
3215857.02
  30
3256
  0
VERTEX
  8
Unknown_Line_Type
  70
32
  10
1819158.53
  20
3215856.00
  30
3256
  0
VERTEX
  8
Unknown_Line_Type
  70
32
  10
1819160.32
  20
3215855.61
  30
3256
  0
VERTEX
  8
Unknown_Line_Type
  70
32
  10
1819168.75
  20
3215853.58
  30
3256
  0
VERTEX
  8
Unknown_Line_Type
  70
32
  10
1819173.18
  20
3215852.45
  30
3256
  0
VERTEX
  8
Unknown_Line_Type
  70
32
  10
1819175.01
  20
3215851.92
  30
3256
  0
VERTEX
  8
Unknown_Line_Type
  70
32
  10
1819176.47
  20
3215851.45
  30
3256
  0
VERTEX
  8
Unknown_Line_Type
  70
32
  10
1819177.21
  20
3215851.17
  30
3256
  0
VERTEX
  8
Unknown_Line_Type
  70
32
  10
1819177.94
  20
3215850.85
  30
3256
  0
SEQEND
  8
Unknown_Line_Type
  0
POLYLINE
  8
Unknown_Line_Type
  70
8
  66
1
 62
0
 39
0
  0
VERTEX
  8
Unknown_Line_Type
  70
32
  10
1818958.00
  20
3215908.75
  30
3258
  0
VERTEX
  8
Unknown_Line_Type
  70
32
  10
1818958.05
  20
3215908.53
  30
3258
  0
VERTEX
  8
Unknown_Line_Type
  70
32
  10
1818958.36
  20
3215908.15
  30
3258
  0
VERTEX
  8
Unknown_Line_Type
  70
32
  10
1818959.00
  20
3215907.56
  30
3258
  0
VERTEX
  8
Unknown_Line_Type
  70
32
  10
1818959.93
  20
3215906.87
  30
3258
  0
VERTEX
  8
Unknown_Line_Type
  70
32
  10
1818961.12
  20
3215906.14
  30
3258
  0
VERTEX
  8
Unknown_Line_Type
  70
32
  10
1818962.51
  20
3215905.45
  30
3258
  0
VERTEX
  8
Unknown_Line_Type
  70
32
  10
1818964.09
  20
3215904.77
  30
3258
  0
VERTEX
  8
Unknown_Line_Type
  70
32
  10
1818966.28
  20
3215903.91
  30
3258
  0
VERTEX
  8
Unknown_Line_Type
  70
32
  10
1818971.81
  20
3215901.85
  30
3258
  0
VERTEX
  8
Unknown_Line_Type
  70
32
  10
1818973.98
  20
3215900.99
  30
3258
  0
VERTEX
  8
Unknown_Line_Type
  70
32
  10
1818975.73
  20
3215900.27
  30
3258
  0
VERTEX
  8
Unknown_Line_Type
  70
32
  10
1818979.12
  20
3215898.73
  30
3258
  0
VERTEX
  8
Unknown_Line_Type
  70
32
  10
1818984.27
  20
3215896.23
  30
3258
  0
VERTEX
  8
Unknown_Line_Type
  70
32
  10
1818987.75
  20
3215894.61
  30
3258
  0
VERTEX
  8
Unknown_Line_Type
  70
32
  10
1818994.93
  20
3215891.58
  30
3258
  0
VERTEX
  8
Unknown_Line_Type
  70
32
  10
1818996.59
  20
3215890.93
  30
3258
  0
VERTEX
  8
Unknown_Line_Type
  70
32
  10
1818998.28
  20
3215890.35
  30
3258
  0
VERTEX
  8
Unknown_Line_Type
  70
32
  10
1818999.77
  20
3215889.92
  30
3258
  0
VERTEX
  8
Unknown_Line_Type
  70
32
  10
1819001.29
  20
3215889.56
  30
3258
  0
VERTEX
  8
Unknown_Line_Type
  70
32
  10
1819003.05
  20
3215889.25
  30
3258
  0
VERTEX
  8
Unknown_Line_Type
  70
32
  10
1819004.83
  20
3215889.03
  30
3258
  0
VERTEX
  8
Unknown_Line_Type
  70
32
  10
1819006.62
  20
3215888.88
  30
3258
  0
VERTEX
  8
Unknown_Line_Type
  70
32
  10
1819008.12
  20
3215888.81
  30
3258
  0
VERTEX
  8
Unknown_Line_Type
  70
32
  10
1819014.35
  20
3215888.73
  30
3258
  0
VERTEX
  8
Unknown_Line_Type
  70
32
  10
1819015.87
  20
3215888.66
  30
3258
  0
VERTEX
  8
Unknown_Line_Type
  70
32
  10
1819017.38
  20
3215888.55
  30
3258
  0
VERTEX
  8
Unknown_Line_Type
  70
32
  10
1819019.06
  20
3215888.38
  30
3258
  0
VERTEX
  8
Unknown_Line_Type
  70
32
  10
1819020.73
  20
3215888.17
  30
3258
  0
VERTEX
  8
Unknown_Line_Type
  70
32
  10
1819024.07
  20
3215887.66
  30
3258
  0
VERTEX
  8
Unknown_Line_Type
  70
32
  10
1819027.25
  20
3215887.08
  30
3258
  0
VERTEX
  8
Unknown_Line_Type
  70
32
  10
1819035.16
  20
3215885.50
  30
3258
  0
VERTEX
  8
Unknown_Line_Type
  70
32
  10
1819038.14
  20
3215884.78
  30
3258
  0
VERTEX
  8
Unknown_Line_Type
  70
32
  10
1819048.17
  20
3215882.16
  30
3258
  0
VERTEX
  8
Unknown_Line_Type
  70
32
  10
1819053.28
  20
3215880.64
  30
3258
  0
VERTEX
  8
Unknown_Line_Type
  70
32
  10
1819055.05
  20
3215880.17
  30
3258
  0
VERTEX
  8
Unknown_Line_Type
  70
32
  10
1819057.28
  20
3215879.65
  30
3258
  0
VERTEX
  8
Unknown_Line_Type
  70
32
  10
1819060.52
  20
3215878.98
  30
3258
  0
VERTEX
  8
Unknown_Line_Type
  70
32
  10
1819062.14
  20
3215878.61
  30
3258
  0
VERTEX
  8
Unknown_Line_Type
  70
32
  10
1819063.73
  20
3215878.19
  30
3258
  0
VERTEX
  8
Unknown_Line_Type
  70
32
  10
1819065.12
  20
3215877.73
  30
3258
  0
VERTEX
  8
Unknown_Line_Type
  70
32
  10
1819066.50
  20
3215877.22
  30
3258
  0
VERTEX
  8
Unknown_Line_Type
  70
32
  10
1819069.12
  20
3215876.18
  30
3258
  0
VERTEX
  8
Unknown_Line_Type
  70
32
  10
1819072.84
  20
3215874.59
  30
3258
  0
VERTEX
  8
Unknown_Line_Type
  70
32
  10
1819075.53
  20
3215873.28
  30
3258
  0
VERTEX
  8
Unknown_Line_Type
  70
32
  10
1819080.04
  20
3215870.90
  30
3258
  0
VERTEX
  8
Unknown_Line_Type
  70
32
  10
1819081.67
  20
3215870.08
  30
3258
  0
VERTEX
  8
Unknown_Line_Type
  70
32
  10
1819083.13
  20
3215869.42
  30
3258
  0
VERTEX
  8
Unknown_Line_Type
  70
32
  10
1819088.21
  20
3215867.33
  30
3258
  0
VERTEX
  8
Unknown_Line_Type
  70
32
  10
1819089.77
  20
3215866.82
  30
3258
  0
VERTEX
  8
Unknown_Line_Type
  70
32
  10
1819091.38
  20
3215866.41
  30
3258
  0
VERTEX
  8
Unknown_Line_Type
  70
32
  10
1819093.12
  20
3215866.07
  30
3258
  0
VERTEX
  8
Unknown_Line_Type
  70
32
  10
1819094.18
  20
3215865.91
  30
3258
  0
VERTEX
  8
Unknown_Line_Type
  70
32
  10
1819095.79
  20
3215865.71
  30
3258
  0
VERTEX
  8
Unknown_Line_Type
  70
32
  10
1819097.42
  20
3215865.56
  30
3258
  0
VERTEX
  8
Unknown_Line_Type
  70
32
  10
1819100.70
  20
3215865.33
  30
3258
  0
VERTEX
  8
Unknown_Line_Type
  70
32
  10
1819107.15
  20
3215864.97
  30
3258
  0
VERTEX
  8
Unknown_Line_Type
  70
32
  10
1819110.00
  20
3215864.88
  30
3258
  0
VERTEX
  8
Unknown_Line_Type
  70
32
  10
1819111.37
  20
3215864.87
  30
3258
  0
VERTEX
  8
Unknown_Line_Type
  70
32
  10
1819118.51
  20
3215865.09
  30
3258
  0
VERTEX
  8
Unknown_Line_Type
  70
32
  10
1819123.48
  20
3215865.39
  30
3258
  0
VERTEX
  8
Unknown_Line_Type
  70
32
  10
1819125.22
  20
3215865.54
  30
3258
  0
VERTEX
  8
Unknown_Line_Type
  70
32
  10
1819126.95
  20
3215865.74
  30
3258
  0
VERTEX
  8
Unknown_Line_Type
  70
32
  10
1819128.67
  20
3215866.01
  30
3258
  0
VERTEX
  8
Unknown_Line_Type
  70
32
  10
1819132.11
  20
3215866.60
  30
3258
  0
VERTEX
  8
Unknown_Line_Type
  70
32
  10
1819133.83
  20
3215866.86
  30
3258
  0
VERTEX
  8
Unknown_Line_Type
  70
32
  10
1819134.88
  20
3215866.98
  30
3258
  0
VERTEX
  8
Unknown_Line_Type
  70
32
  10
1819136.65
  20
3215867.13
  30
3258
  0
VERTEX
  8
Unknown_Line_Type
  70
32
  10
1819138.43
  20
3215867.22
  30
3258
  0
VERTEX
  8
Unknown_Line_Type
  70
32
  10
1819140.20
  20
3215867.24
  30
3258
  0
VERTEX
  8
Unknown_Line_Type
  70
32
  10
1819141.98
  20
3215867.21
  30
3258
  0
VERTEX
  8
Unknown_Line_Type
  70
32
  10
1819149.32
  20
3215866.93
  30
3258
  0
VERTEX
  8
Unknown_Line_Type
  70
32
  10
1819151.63
  20
3215866.83
  30
3258
  0
VERTEX
  8
Unknown_Line_Type
  70
32
  10
1819153.97
  20
3215866.68
  30
3258
  0
VERTEX
  8
Unknown_Line_Type
  70
32
  10
1819156.25
  20
3215866.47
  30
3258
  0
VERTEX
  8
Unknown_Line_Type
  70
32
  10
1819162.03
  20
3215865.69
  30
3258
  0
VERTEX
  8
Unknown_Line_Type
  70
32
  10
1819163.72
  20
3215865.55
  30
3258
  0
VERTEX
  8
Unknown_Line_Type
  70
32
  10
1819164.19
  20
3215865.57
  30
3258
  0
SEQEND
  8
Unknown_Line_Type
  0
POLYLINE
  8
Unknown_Line_Type
  70
8
  66
1
 62
0
 39
0
  0
VERTEX
  8
Unknown_Line_Type
  70
32
  10
1819155.88
  20
3215874.45
  30
3260
  0
VERTEX
  8
Unknown_Line_Type
  70
32
  10
1819155.59
  20
3215874.35
  30
3260
  0
VERTEX
  8
Unknown_Line_Type
  70
32
  10
1819154.76
  20
3215874.15
  30
3260
  0
VERTEX
  8
Unknown_Line_Type
  70
32
  10
1819153.46
  20
3215873.89
  30
3260
  0
VERTEX
  8
Unknown_Line_Type
  70
32
  10
1819150.24
  20
3215873.36
  30
3260
  0
VERTEX
  8
Unknown_Line_Type
  70
32
  10
1819148.33
  20
3215873.11
  30
3260
  0
VERTEX
  8
Unknown_Line_Type
  70
32
  10
1819146.29
  20
3215872.90
  30
3260
  0
VERTEX
  8
Unknown_Line_Type
  70
32
  10
1819143.98
  20
3215872.71
  30
3260
  0
VERTEX
  8
Unknown_Line_Type
  70
32
  10
1819141.68
  20
3215872.58
  30
3260
  0
VERTEX
  8
Unknown_Line_Type
  70
32
  10
1819135.81
  20
3215872.34
  30
3260
  0
VERTEX
  8
Unknown_Line_Type
  70
32
  10
1819134.13
  20
3215872.23
  30
3260
  0
VERTEX
  8
Unknown_Line_Type
  70
32
  10
1819132.45
  20
3215872.06
  30
3260
  0
VERTEX
  8
Unknown_Line_Type
  70
32
  10
1819130.78
  20
3215871.85
  30
3260
  0
VERTEX
  8
Unknown_Line_Type
  70
32
  10
1819126.30
  20
3215871.10
  30
3260
  0
VERTEX
  8
Unknown_Line_Type
  70
32
  10
1819123.71
  20
3215870.72
  30
3260
  0
VERTEX
  8
Unknown_Line_Type
  70
32
  10
1819118.93
  20
3215870.15
  30
3260
  0
VERTEX
  8
Unknown_Line_Type
  70
32
  10
1819115.27
  20
3215869.77
  30
3260
  0
VERTEX
  8
Unknown_Line_Type
  70
32
  10
1819109.14
  20
3215869.31
  30
3260
  0
VERTEX
  8
Unknown_Line_Type
  70
32
  10
1819107.80
  20
3215869.28
  30
3260
  0
VERTEX
  8
Unknown_Line_Type
  70
32
  10
1819106.35
  20
3215869.39
  30
3260
  0
VERTEX
  8
Unknown_Line_Type
  70
32
  10
1819104.90
  20
3215869.64
  30
3260
  0
VERTEX
  8
Unknown_Line_Type
  70
32
  10
1819103.66
  20
3215869.98
  30
3260
  0
VERTEX
  8
Unknown_Line_Type
  70
32
  10
1819102.42
  20
3215870.41
  30
3260
  0
VERTEX
  8
Unknown_Line_Type
  70
32
  10
1819101.20
  20
3215870.92
  30
3260
  0
VERTEX
  8
Unknown_Line_Type
  70
32
  10
1819096.65
  20
3215873.08
  30
3260
  0
VERTEX
  8
Unknown_Line_Type
  70
32
  10
1819092.45
  20
3215874.84
  30
3260
  0
VERTEX
  8
Unknown_Line_Type
  70
32
  10
1819091.03
  20
3215875.39
  30
3260
  0
VERTEX
  8
Unknown_Line_Type
  70
32
  10
1819086.23
  20
3215877.08
  30
3260
  0
VERTEX
  8
Unknown_Line_Type
  70
32
  10
1819083.30
  20
3215878.15
  30
3260
  0
VERTEX
  8
Unknown_Line_Type
  70
32
  10
1819080.30
  20
3215879.13
  30
3260
  0
VERTEX
  8
Unknown_Line_Type
  70
32
  10
1819076.12
  20
3215880.37
  30
3260
  0
VERTEX
  8
Unknown_Line_Type
  70
32
  10
1819073.35
  20
3215881.15
  30
3260
  0
VERTEX
  8
Unknown_Line_Type
  70
32
  10
1819068.55
  20
3215882.38
  30
3260
  0
VERTEX
  8
Unknown_Line_Type
  70
32
  10
1819063.49
  20
3215883.60
  30
3260
  0
VERTEX
  8
Unknown_Line_Type
  70
32
  10
1819062.07
  20
3215884.00
  30
3260
  0
VERTEX
  8
Unknown_Line_Type
  70
32
  10
1819059.27
  20
3215884.86
  30
3260
  0
VERTEX
  8
Unknown_Line_Type
  70
32
  10
1819054.68
  20
3215886.42
  30
3260
  0
VERTEX
  8
Unknown_Line_Type
  70
32
  10
1819053.06
  20
3215886.88
  30
3260
  0
VERTEX
  8
Unknown_Line_Type
  70
32
  10
1819051.31
  20
3215887.28
  30
3260
  0
VERTEX
  8
Unknown_Line_Type
  70
32
  10
1819047.69
  20
3215887.95
  30
3260
  0
VERTEX
  8
Unknown_Line_Type
  70
32
  10
1819045.94
  20
3215888.32
  30
3260
  0
VERTEX
  8
Unknown_Line_Type
  70
32
  10
1819044.20
  20
3215888.74
  30
3260
  0
VERTEX
  8
Unknown_Line_Type
  70
32
  10
1819042.46
  20
3215889.20
  30
3260
  0
VERTEX
  8
Unknown_Line_Type
  70
32
  10
1819039.45
  20
3215890.09
  30
3260
  0
VERTEX
  8
Unknown_Line_Type
  70
32
  10
1819032.89
  20
3215892.16
  30
3260
  0
VERTEX
  8
Unknown_Line_Type
  70
32
  10
1819031.23
  20
3215892.63
  30
3260
  0
VERTEX
  8
Unknown_Line_Type
  70
32
  10
1819029.35
  20
3215893.11
  30
3260
  0
VERTEX
  8
Unknown_Line_Type
  70
32
  10
1819027.45
  20
3215893.55
  30
3260
  0
VERTEX
  8
Unknown_Line_Type
  70
32
  10
1819024.67
  20
3215894.08
  30
3260
  0
VERTEX
  8
Unknown_Line_Type
  70
32
  10
1819022.71
  20
3215894.38
  30
3260
  0
VERTEX
  8
Unknown_Line_Type
  70
32
  10
1819020.74
  20
3215894.64
  30
3260
  0
VERTEX
  8
Unknown_Line_Type
  70
32
  10
1819018.77
  20
3215894.86
  30
3260
  0
VERTEX
  8
Unknown_Line_Type
  70
32
  10
1819014.82
  20
3215895.18
  30
3260
  0
VERTEX
  8
Unknown_Line_Type
  70
32
  10
1819006.86
  20
3215895.66
  30
3260
  0
VERTEX
  8
Unknown_Line_Type
  70
32
  10
1819003.06
  20
3215895.98
  30
3260
  0
VERTEX
  8
Unknown_Line_Type
  70
32
  10
1819001.17
  20
3215896.19
  30
3260
  0
VERTEX
  8
Unknown_Line_Type
  70
32
  10
1818999.29
  20
3215896.45
  30
3260
  0
VERTEX
  8
Unknown_Line_Type
  70
32
  10
1818997.42
  20
3215896.76
  30
3260
  0
VERTEX
  8
Unknown_Line_Type
  70
32
  10
1818995.87
  20
3215897.09
  30
3260
  0
VERTEX
  8
Unknown_Line_Type
  70
32
  10
1818994.34
  20
3215897.46
  30
3260
  0
VERTEX
  8
Unknown_Line_Type
  70
32
  10
1818992.21
  20
3215898.05
  30
3260
  0
VERTEX
  8
Unknown_Line_Type
  70
32
  10
1818987.52
  20
3215899.52
  30
3260
  0
VERTEX
  8
Unknown_Line_Type
  70
32
  10
1818985.76
  20
3215900.10
  30
3260
  0
VERTEX
  8
Unknown_Line_Type
  70
32
  10
1818984.01
  20
3215900.72
  30
3260
  0
VERTEX
  8
Unknown_Line_Type
  70
32
  10
1818982.34
  20
3215901.38
  30
3260
  0
VERTEX
  8
Unknown_Line_Type
  70
32
  10
1818980.69
  20
3215902.09
  30
3260
  0
VERTEX
  8
Unknown_Line_Type
  70
32
  10
1818979.07
  20
3215902.84
  30
3260
  0
VERTEX
  8
Unknown_Line_Type
  70
32
  10
1818977.46
  20
3215903.63
  30
3260
  0
VERTEX
  8
Unknown_Line_Type
  70
32
  10
1818975.89
  20
3215904.46
  30
3260
  0
VERTEX
  8
Unknown_Line_Type
  70
32
  10
1818972.25
  20
3215906.48
  30
3260
  0
VERTEX
  8
Unknown_Line_Type
  70
32
  10
1818970.35
  20
3215907.45
  30
3260
  0
VERTEX
  8
Unknown_Line_Type
  70
32
  10
1818964.42
  20
3215910.32
  30
3260
  0
VERTEX
  8
Unknown_Line_Type
  70
32
  10
1818962.63
  20
3215911.23
  30
3260
  0
VERTEX
  8
Unknown_Line_Type
  70
32
  10
1818961.07
  20
3215912.11
  30
3260
  0
VERTEX
  8
Unknown_Line_Type
  70
32
  10
1818959.81
  20
3215912.89
  30
3260
  0
VERTEX
  8
Unknown_Line_Type
  70
32
  10
1818958.86
  20
3215913.54
  30
3260
  0
VERTEX
  8
Unknown_Line_Type
  70
32
  10
1818958.00
  20
3215914.17
  30
3260
  0
SEQEND
  8
Unknown_Line_Type
  0
POLYLINE
  8
Unknown_Line_Type
  70
8
  66
1
 62
0
 39
0
  0
VERTEX
  8
Unknown_Line_Type
  70
32
  10
1819152.12
  20
3215878.48
  30
3262
  0
VERTEX
  8
Unknown_Line_Type
  70
32
  10
1819151.86
  20
3215878.39
  30
3262
  0
VERTEX
  8
Unknown_Line_Type
  70
32
  10
1819151.12
  20
3215878.21
  30
3262
  0
VERTEX
  8
Unknown_Line_Type
  70
32
  10
1819149.96
  20
3215877.99
  30
3262
  0
VERTEX
  8
Unknown_Line_Type
  70
32
  10
1819148.45
  20
3215877.74
  30
3262
  0
VERTEX
  8
Unknown_Line_Type
  70
32
  10
1819146.78
  20
3215877.52
  30
3262
  0
VERTEX
  8
Unknown_Line_Type
  70
32
  10
1819144.93
  20
3215877.33
  30
3262
  0
VERTEX
  8
Unknown_Line_Type
  70
32
  10
1819142.94
  20
3215877.16
  30
3262
  0
VERTEX
  8
Unknown_Line_Type
  70
32
  10
1819140.37
  20
3215877.00
  30
3262
  0
VERTEX
  8
Unknown_Line_Type
  70
32
  10
1819126.36
  20
3215876.31
  30
3262
  0
VERTEX
  8
Unknown_Line_Type
  70
32
  10
1819123.73
  20
3215876.24
  30
3262
  0
VERTEX
  8
Unknown_Line_Type
  70
32
  10
1819120.93
  20
3215876.23
  30
3262
  0
VERTEX
  8
Unknown_Line_Type
  70
32
  10
1819114.29
  20
3215876.26
  30
3262
  0
VERTEX
  8
Unknown_Line_Type
  70
32
  10
1819111.26
  20
3215876.31
  30
3262
  0
VERTEX
  8
Unknown_Line_Type
  70
32
  10
1819109.78
  20
3215876.39
  30
3262
  0
VERTEX
  8
Unknown_Line_Type
  70
32
  10
1819108.06
  20
3215876.56
  30
3262
  0
VERTEX
  8
Unknown_Line_Type
  70
32
  10
1819106.37
  20
3215876.78
  30
3262
  0
VERTEX
  8
Unknown_Line_Type
  70
32
  10
1819104.79
  20
3215877.04
  30
3262
  0
VERTEX
  8
Unknown_Line_Type
  70
32
  10
1819103.52
  20
3215877.32
  30
3262
  0
VERTEX
  8
Unknown_Line_Type
  70
32
  10
1819101.00
  20
3215877.98
  30
3262
  0
VERTEX
  8
Unknown_Line_Type
  70
32
  10
1819096.65
  20
3215879.03
  30
3262
  0
VERTEX
  8
Unknown_Line_Type
  70
32
  10
1819094.85
  20
3215879.56
  30
3262
  0
VERTEX
  8
Unknown_Line_Type
  70
32
  10
1819088.31
  20
3215881.67
  30
3262
  0
VERTEX
  8
Unknown_Line_Type
  70
32
  10
1819080.05
  20
3215884.02
  30
3262
  0
VERTEX
  8
Unknown_Line_Type
  70
32
  10
1819078.28
  20
3215884.56
  30
3262
  0
VERTEX
  8
Unknown_Line_Type
  70
32
  10
1819071.47
  20
3215886.83
  30
3262
  0
VERTEX
  8
Unknown_Line_Type
  70
32
  10
1819068.26
  20
3215887.99
  30
3262
  0
VERTEX
  8
Unknown_Line_Type
  70
32
  10
1819063.46
  20
3215889.80
  30
3262
  0
VERTEX
  8
Unknown_Line_Type
  70
32
  10
1819060.38
  20
3215890.85
  30
3262
  0
VERTEX
  8
Unknown_Line_Type
  70
32
  10
1819058.83
  20
3215891.32
  30
3262
  0
VERTEX
  8
Unknown_Line_Type
  70
32
  10
1819057.07
  20
3215891.79
  30
3262
  0
VERTEX
  8
Unknown_Line_Type
  70
32
  10
1819055.55
  20
3215892.12
  30
3262
  0
VERTEX
  8
Unknown_Line_Type
  70
32
  10
1819049.16
  20
3215893.27
  30
3262
  0
VERTEX
  8
Unknown_Line_Type
  70
32
  10
1819047.55
  20
3215893.62
  30
3262
  0
VERTEX
  8
Unknown_Line_Type
  70
32
  10
1819045.67
  20
3215894.09
  30
3262
  0
VERTEX
  8
Unknown_Line_Type
  70
32
  10
1819043.80
  20
3215894.64
  30
3262
  0
VERTEX
  8
Unknown_Line_Type
  70
32
  10
1819041.95
  20
3215895.24
  30
3262
  0
VERTEX
  8
Unknown_Line_Type
  70
32
  10
1819040.12
  20
3215895.89
  30
3262
  0
VERTEX
  8
Unknown_Line_Type
  70
32
  10
1819036.60
  20
3215897.23
  30
3262
  0
VERTEX
  8
Unknown_Line_Type
  70
32
  10
1819034.83
  20
3215897.86
  30
3262
  0
VERTEX
  8
Unknown_Line_Type
  70
32
  10
1819033.24
  20
3215898.34
  30
3262
  0
VERTEX
  8
Unknown_Line_Type
  70
32
  10
1819031.63
  20
3215898.75
  30
3262
  0
VERTEX
  8
Unknown_Line_Type
  70
32
  10
1819029.88
  20
3215899.11
  30
3262
  0
VERTEX
  8
Unknown_Line_Type
  70
32
  10
1819028.10
  20
3215899.42
  30
3262
  0
VERTEX
  8
Unknown_Line_Type
  70
32
  10
1819020.65
  20
3215900.50
  30
3262
  0
VERTEX
  8
Unknown_Line_Type
  70
32
  10
1819017.37
  20
3215901.02
  30
3262
  0
VERTEX
  8
Unknown_Line_Type
  70
32
  10
1819013.90
  20
3215901.69
  30
3262
  0
VERTEX
  8
Unknown_Line_Type
  70
32
  10
1819010.24
  20
3215902.48
  30
3262
  0
VERTEX
  8
Unknown_Line_Type
  70
32
  10
1819008.40
  20
3215902.84
  30
3262
  0
VERTEX
  8
Unknown_Line_Type
  70
32
  10
1819006.59
  20
3215903.14
  30
3262
  0
VERTEX
  8
Unknown_Line_Type
  70
32
  10
1818999.29
  20
3215904.12
  30
3262
  0
VERTEX
  8
Unknown_Line_Type
  70
32
  10
1818995.59
  20
3215904.71
  30
3262
  0
VERTEX
  8
Unknown_Line_Type
  70
32
  10
1818993.75
  20
3215905.05
  30
3262
  0
VERTEX
  8
Unknown_Line_Type
  70
32
  10
1818991.93
  20
3215905.45
  30
3262
  0
VERTEX
  8
Unknown_Line_Type
  70
32
  10
1818988.26
  20
3215906.39
  30
3262
  0
VERTEX
  8
Unknown_Line_Type
  70
32
  10
1818983.48
  20
3215907.70
  30
3262
  0
VERTEX
  8
Unknown_Line_Type
  70
32
  10
1818981.92
  20
3215908.17
  30
3262
  0
VERTEX
  8
Unknown_Line_Type
  70
32
  10
1818980.13
  20
3215908.77
  30
3262
  0
VERTEX
  8
Unknown_Line_Type
  70
32
  10
1818978.41
  20
3215909.48
  30
3262
  0
VERTEX
  8
Unknown_Line_Type
  70
32
  10
1818976.78
  20
3215910.32
  30
3262
  0
VERTEX
  8
Unknown_Line_Type
  70
32
  10
1818973.45
  20
3215912.30
  30
3262
  0
VERTEX
  8
Unknown_Line_Type
  70
32
  10
1818971.71
  20
3215913.25
  30
3262
  0
VERTEX
  8
Unknown_Line_Type
  70
32
  10
1818969.79
  20
3215914.19
  30
3262
  0
VERTEX
  8
Unknown_Line_Type
  70
32
  10
1818967.79
  20
3215915.09
  30
3262
  0
VERTEX
  8
Unknown_Line_Type
  70
32
  10
1818959.52
  20
3215918.70
  30
3262
  0
VERTEX
  8
Unknown_Line_Type
  70
32
  10
1818958.72
  20
3215919.00
  30
3262
  0
VERTEX
  8
Unknown_Line_Type
  70
32
  10
1818958.20
  20
3215919.17
  30
3262
  0
VERTEX
  8
Unknown_Line_Type
  70
32
  10
1818958.00
  20
3215919.19
  30
3262
  0
SEQEND
  8
Unknown_Line_Type
  0
POLYLINE
  8
Unknown_Line_Type
  70
8
  66
1
 62
0
 39
0
  0
VERTEX
  8
Unknown_Line_Type
  70
32
  10
1819148.30
  20
3215882.57
  30
3264
  0
VERTEX
  8
Unknown_Line_Type
  70
32
  10
1819147.29
  20
3215882.51
  30
3264
  0
VERTEX
  8
Unknown_Line_Type
  70
32
  10
1819144.56
  20
3215882.22
  30
3264
  0
VERTEX
  8
Unknown_Line_Type
  70
32
  10
1819136.84
  20
3215881.23
  30
3264
  0
VERTEX
  8
Unknown_Line_Type
  70
32
  10
1819132.24
  20
3215880.71
  30
3264
  0
VERTEX
  8
Unknown_Line_Type
  70
32
  10
1819130.12
  20
3215880.52
  30
3264
  0
VERTEX
  8
Unknown_Line_Type
  70
32
  10
1819128.25
  20
3215880.41
  30
3264
  0
VERTEX
  8
Unknown_Line_Type
  70
32
  10
1819126.48
  20
3215880.35
  30
3264
  0
VERTEX
  8
Unknown_Line_Type
  70
32
  10
1819123.21
  20
3215880.38
  30
3264
  0
VERTEX
  8
Unknown_Line_Type
  70
32
  10
1819121.58
  20
3215880.44
  30
3264
  0
VERTEX
  8
Unknown_Line_Type
  70
32
  10
1819118.28
  20
3215880.63
  30
3264
  0
VERTEX
  8
Unknown_Line_Type
  70
32
  10
1819114.95
  20
3215880.92
  30
3264
  0
VERTEX
  8
Unknown_Line_Type
  70
32
  10
1819113.29
  20
3215881.11
  30
3264
  0
VERTEX
  8
Unknown_Line_Type
  70
32
  10
1819111.64
  20
3215881.33
  30
3264
  0
VERTEX
  8
Unknown_Line_Type
  70
32
  10
1819109.91
  20
3215881.62
  30
3264
  0
VERTEX
  8
Unknown_Line_Type
  70
32
  10
1819104.62
  20
3215882.59
  30
3264
  0
VERTEX
  8
Unknown_Line_Type
  70
32
  10
1819099.22
  20
3215883.39
  30
3264
  0
VERTEX
  8
Unknown_Line_Type
  70
32
  10
1819097.65
  20
3215883.67
  30
3264
  0
VERTEX
  8
Unknown_Line_Type
  70
32
  10
1819095.88
  20
3215884.07
  30
3264
  0
VERTEX
  8
Unknown_Line_Type
  70
32
  10
1819094.12
  20
3215884.53
  30
3264
  0
VERTEX
  8
Unknown_Line_Type
  70
32
  10
1819090.77
  20
3215885.47
  30
3264
  0
VERTEX
  8
Unknown_Line_Type
  70
32
  10
1819085.98
  20
3215886.86
  30
3264
  0
VERTEX
  8
Unknown_Line_Type
  70
32
  10
1819082.46
  20
3215887.98
  30
3264
  0
VERTEX
  8
Unknown_Line_Type
  70
32
  10
1819080.73
  20
3215888.61
  30
3264
  0
VERTEX
  8
Unknown_Line_Type
  70
32
  10
1819079.29
  20
3215889.20
  30
3264
  0
VERTEX
  8
Unknown_Line_Type
  70
32
  10
1819071.07
  20
3215892.83
  30
3264
  0
VERTEX
  8
Unknown_Line_Type
  70
32
  10
1819067.69
  20
3215894.27
  30
3264
  0
VERTEX
  8
Unknown_Line_Type
  70
32
  10
1819065.98
  20
3215894.96
  30
3264
  0
VERTEX
  8
Unknown_Line_Type
  70
32
  10
1819064.18
  20
3215895.66
  30
3264
  0
VERTEX
  8
Unknown_Line_Type
  70
32
  10
1819062.36
  20
3215896.31
  30
3264
  0
VERTEX
  8
Unknown_Line_Type
  70
32
  10
1819060.54
  20
3215896.91
  30
3264
  0
VERTEX
  8
Unknown_Line_Type
  70
32
  10
1819058.85
  20
3215897.41
  30
3264
  0
VERTEX
  8
Unknown_Line_Type
  70
32
  10
1819057.29
  20
3215897.81
  30
3264
  0
VERTEX
  8
Unknown_Line_Type
  70
32
  10
1819055.72
  20
3215898.15
  30
3264
  0
VERTEX
  8
Unknown_Line_Type
  70
32
  10
1819049.32
  20
3215899.33
  30
3264
  0
VERTEX
  8
Unknown_Line_Type
  70
32
  10
1819047.71
  20
3215899.66
  30
3264
  0
VERTEX
  8
Unknown_Line_Type
  70
32
  10
1819046.11
  20
3215900.03
  30
3264
  0
VERTEX
  8
Unknown_Line_Type
  70
32
  10
1819043.71
  20
3215900.71
  30
3264
  0
VERTEX
  8
Unknown_Line_Type
  70
32
  10
1819038.55
  20
3215902.43
  30
3264
  0
VERTEX
  8
Unknown_Line_Type
  70
32
  10
1819036.85
  20
3215902.94
  30
3264
  0
VERTEX
  8
Unknown_Line_Type
  70
32
  10
1819035.14
  20
3215903.39
  30
3264
  0
VERTEX
  8
Unknown_Line_Type
  70
32
  10
1819033.01
  20
3215903.84
  30
3264
  0
VERTEX
  8
Unknown_Line_Type
  70
32
  10
1819031.24
  20
3215904.13
  30
3264
  0
VERTEX
  8
Unknown_Line_Type
  70
32
  10
1819021.91
  20
3215905.35
  30
3264
  0
VERTEX
  8
Unknown_Line_Type
  70
32
  10
1819018.38
  20
3215905.93
  30
3264
  0
VERTEX
  8
Unknown_Line_Type
  70
32
  10
1819016.78
  20
3215906.26
  30
3264
  0
VERTEX
  8
Unknown_Line_Type
  70
32
  10
1819013.82
  20
3215906.99
  30
3264
  0
VERTEX
  8
Unknown_Line_Type
  70
32
  10
1819006.28
  20
3215909.16
  30
3264
  0
VERTEX
  8
Unknown_Line_Type
  70
32
  10
1819002.63
  20
3215910.15
  30
3264
  0
VERTEX
  8
Unknown_Line_Type
  70
32
  10
1818999.30
  20
3215910.92
  30
3264
  0
VERTEX
  8
Unknown_Line_Type
  70
32
  10
1818990.95
  20
3215912.64
  30
3264
  0
VERTEX
  8
Unknown_Line_Type
  70
32
  10
1818986.64
  20
3215913.60
  30
3264
  0
VERTEX
  8
Unknown_Line_Type
  70
32
  10
1818985.22
  20
3215913.92
  30
3264
  0
VERTEX
  8
Unknown_Line_Type
  70
32
  10
1818983.89
  20
3215914.27
  30
3264
  0
VERTEX
  8
Unknown_Line_Type
  70
32
  10
1818982.59
  20
3215914.68
  30
3264
  0
VERTEX
  8
Unknown_Line_Type
  70
32
  10
1818981.32
  20
3215915.17
  30
3264
  0
VERTEX
  8
Unknown_Line_Type
  70
32
  10
1818979.67
  20
3215915.97
  30
3264
  0
VERTEX
  8
Unknown_Line_Type
  70
32
  10
1818978.25
  20
3215916.76
  30
3264
  0
VERTEX
  8
Unknown_Line_Type
  70
32
  10
1818975.40
  20
3215918.47
  30
3264
  0
VERTEX
  8
Unknown_Line_Type
  70
32
  10
1818973.72
  20
3215919.36
  30
3264
  0
VERTEX
  8
Unknown_Line_Type
  70
32
  10
1818972.24
  20
3215920.04
  30
3264
  0
VERTEX
  8
Unknown_Line_Type
  70
32
  10
1818970.66
  20
3215920.69
  30
3264
  0
VERTEX
  8
Unknown_Line_Type
  70
32
  10
1818969.43
  20
3215921.17
  30
3264
  0
VERTEX
  8
Unknown_Line_Type
  70
32
  10
1818967.09
  20
3215921.96
  30
3264
  0
VERTEX
  8
Unknown_Line_Type
  70
32
  10
1818964.80
  20
3215922.63
  30
3264
  0
VERTEX
  8
Unknown_Line_Type
  70
32
  10
1818962.66
  20
3215923.18
  30
3264
  0
VERTEX
  8
Unknown_Line_Type
  70
32
  10
1818960.80
  20
3215923.60
  30
3264
  0
VERTEX
  8
Unknown_Line_Type
  70
32
  10
1818959.33
  20
3215923.91
  30
3264
  0
VERTEX
  8
Unknown_Line_Type
  70
32
  10
1818958.00
  20
3215924.13
  30
3264
  0
SEQEND
  8
Unknown_Line_Type
  0
POLYLINE
  8
Unknown_Line_Type
  70
8
  66
1
 62
0
 39
0
  0
VERTEX
  8
Unknown_Line_Type
  70
32
  10
1818958.00
  20
3215929.72
  30
3266
  0
VERTEX
  8
Unknown_Line_Type
  70
32
  10
1818961.52
  20
3215929.06
  30
3266
  0
VERTEX
  8
Unknown_Line_Type
  70
32
  10
1818965.73
  20
3215928.16
  30
3266
  0
VERTEX
  8
Unknown_Line_Type
  70
32
  10
1818968.10
  20
3215927.58
  30
3266
  0
VERTEX
  8
Unknown_Line_Type
  70
32
  10
1818970.50
  20
3215926.94
  30
3266
  0
VERTEX
  8
Unknown_Line_Type
  70
32
  10
1818972.82
  20
3215926.22
  30
3266
  0
VERTEX
  8
Unknown_Line_Type
  70
32
  10
1818974.94
  20
3215925.45
  30
3266
  0
VERTEX
  8
Unknown_Line_Type
  70
32
  10
1818976.80
  20
3215924.65
  30
3266
  0
VERTEX
  8
Unknown_Line_Type
  70
32
  10
1818980.80
  20
3215922.67
  30
3266
  0
VERTEX
  8
Unknown_Line_Type
  70
32
  10
1818982.52
  20
3215921.91
  30
3266
  0
VERTEX
  8
Unknown_Line_Type
  70
32
  10
1818984.28
  20
3215921.22
  30
3266
  0
VERTEX
  8
Unknown_Line_Type
  70
32
  10
1818986.06
  20
3215920.59
  30
3266
  0
VERTEX
  8
Unknown_Line_Type
  70
32
  10
1818990.22
  20
3215919.27
  30
3266
  0
VERTEX
  8
Unknown_Line_Type
  70
32
  10
1818997.10
  20
3215917.00
  30
3266
  0
VERTEX
  8
Unknown_Line_Type
  70
32
  10
1819002.62
  20
3215915.34
  30
3266
  0
VERTEX
  8
Unknown_Line_Type
  70
32
  10
1819009.33
  20
3215913.26
  30
3266
  0
VERTEX
  8
Unknown_Line_Type
  70
32
  10
1819012.53
  20
3215912.32
  30
3266
  0
VERTEX
  8
Unknown_Line_Type
  70
32
  10
1819014.05
  20
3215911.91
  30
3266
  0
VERTEX
  8
Unknown_Line_Type
  70
32
  10
1819015.59
  20
3215911.53
  30
3266
  0
VERTEX
  8
Unknown_Line_Type
  70
32
  10
1819017.34
  20
3215911.13
  30
3266
  0
VERTEX
  8
Unknown_Line_Type
  70
32
  10
1819020.87
  20
3215910.47
  30
3266
  0
VERTEX
  8
Unknown_Line_Type
  70
32
  10
1819024.16
  20
3215909.95
  30
3266
  0
VERTEX
  8
Unknown_Line_Type
  70
32
  10
1819030.40
  20
3215909.06
  30
3266
  0
VERTEX
  8
Unknown_Line_Type
  70
32
  10
1819033.67
  20
3215908.50
  30
3266
  0
VERTEX
  8
Unknown_Line_Type
  70
32
  10
1819035.30
  20
3215908.18
  30
3266
  0
VERTEX
  8
Unknown_Line_Type
  70
32
  10
1819039.68
  20
3215907.19
  30
3266
  0
VERTEX
  8
Unknown_Line_Type
  70
32
  10
1819043.39
  20
3215906.39
  30
3266
  0
VERTEX
  8
Unknown_Line_Type
  70
32
  10
1819053.32
  20
3215904.50
  30
3266
  0
VERTEX
  8
Unknown_Line_Type
  70
32
  10
1819054.83
  20
3215904.17
  30
3266
  0
VERTEX
  8
Unknown_Line_Type
  70
32
  10
1819056.32
  20
3215903.80
  30
3266
  0
VERTEX
  8
Unknown_Line_Type
  70
32
  10
1819057.79
  20
3215903.38
  30
3266
  0
VERTEX
  8
Unknown_Line_Type
  70
32
  10
1819059.58
  20
3215902.75
  30
3266
  0
VERTEX
  8
Unknown_Line_Type
  70
32
  10
1819061.35
  20
3215902.04
  30
3266
  0
VERTEX
  8
Unknown_Line_Type
  70
32
  10
1819069.70
  20
3215898.51
  30
3266
  0
VERTEX
  8
Unknown_Line_Type
  70
32
  10
1819073.83
  20
3215896.67
  30
3266
  0
VERTEX
  8
Unknown_Line_Type
  70
32
  10
1819080.23
  20
3215893.64
  30
3266
  0
VERTEX
  8
Unknown_Line_Type
  70
32
  10
1819081.64
  20
3215893.00
  30
3266
  0
VERTEX
  8
Unknown_Line_Type
  70
32
  10
1819083.07
  20
3215892.40
  30
3266
  0
VERTEX
  8
Unknown_Line_Type
  70
32
  10
1819084.81
  20
3215891.74
  30
3266
  0
VERTEX
  8
Unknown_Line_Type
  70
32
  10
1819086.53
  20
3215891.16
  30
3266
  0
VERTEX
  8
Unknown_Line_Type
  70
32
  10
1819088.26
  20
3215890.62
  30
3266
  0
VERTEX
  8
Unknown_Line_Type
  70
32
  10
1819091.76
  20
3215889.63
  30
3266
  0
VERTEX
  8
Unknown_Line_Type
  70
32
  10
1819093.52
  20
3215889.17
  30
3266
  0
VERTEX
  8
Unknown_Line_Type
  70
32
  10
1819096.80
  20
3215888.39
  30
3266
  0
VERTEX
  8
Unknown_Line_Type
  70
32
  10
1819098.33
  20
3215888.08
  30
3266
  0
VERTEX
  8
Unknown_Line_Type
  70
32
  10
1819099.68
  20
3215887.86
  30
3266
  0
VERTEX
  8
Unknown_Line_Type
  70
32
  10
1819105.66
  20
3215887.05
  30
3266
  0
VERTEX
  8
Unknown_Line_Type
  70
32
  10
1819107.20
  20
3215886.81
  30
3266
  0
VERTEX
  8
Unknown_Line_Type
  70
32
  10
1819113.20
  20
3215885.61
  30
3266
  0
VERTEX
  8
Unknown_Line_Type
  70
32
  10
1819115.73
  20
3215885.20
  30
3266
  0
VERTEX
  8
Unknown_Line_Type
  70
32
  10
1819119.08
  20
3215884.81
  30
3266
  0
VERTEX
  8
Unknown_Line_Type
  70
32
  10
1819120.88
  20
3215884.67
  30
3266
  0
VERTEX
  8
Unknown_Line_Type
  70
32
  10
1819122.68
  20
3215884.56
  30
3266
  0
VERTEX
  8
Unknown_Line_Type
  70
32
  10
1819124.49
  20
3215884.49
  30
3266
  0
VERTEX
  8
Unknown_Line_Type
  70
32
  10
1819126.46
  20
3215884.51
  30
3266
  0
VERTEX
  8
Unknown_Line_Type
  70
32
  10
1819128.66
  20
3215884.64
  30
3266
  0
VERTEX
  8
Unknown_Line_Type
  70
32
  10
1819130.61
  20
3215884.85
  30
3266
  0
VERTEX
  8
Unknown_Line_Type
  70
32
  10
1819132.58
  20
3215885.13
  30
3266
  0
VERTEX
  8
Unknown_Line_Type
  70
32
  10
1819134.96
  20
3215885.55
  30
3266
  0
VERTEX
  8
Unknown_Line_Type
  70
32
  10
1819142.51
  20
3215887.12
  30
3266
  0
VERTEX
  8
Unknown_Line_Type
  70
32
  10
1819143.47
  20
3215887.28
  30
3266
  0
VERTEX
  8
Unknown_Line_Type
  70
32
  10
1819143.88
  20
3215887.29
  30
3266
  0
SEQEND
  8
Unknown_Line_Type
  0
POLYLINE
  8
Unknown_Line_Type
  70
8
  66
1
 62
0
 39
0
  0
VERTEX
  8
Unknown_Line_Type
  70
32
  10
1818958.00
  20
3215936.09
  30
3268
  0
VERTEX
  8
Unknown_Line_Type
  70
32
  10
1818962.85
  20
3215935.04
  30
3268
  0
VERTEX
  8
Unknown_Line_Type
  70
32
  10
1818966.88
  20
3215934.06
  30
3268
  0
VERTEX
  8
Unknown_Line_Type
  70
32
  10
1818969.04
  20
3215933.48
  30
3268
  0
VERTEX
  8
Unknown_Line_Type
  70
32
  10
1818971.25
  20
3215932.84
  30
3268
  0
VERTEX
  8
Unknown_Line_Type
  70
32
  10
1818973.38
  20
3215932.17
  30
3268
  0
VERTEX
  8
Unknown_Line_Type
  70
32
  10
1818976.69
  20
3215931.02
  30
3268
  0
VERTEX
  8
Unknown_Line_Type
  70
32
  10
1818984.06
  20
3215928.04
  30
3268
  0
VERTEX
  8
Unknown_Line_Type
  70
32
  10
1818987.69
  20
3215926.68
  30
3268
  0
VERTEX
  8
Unknown_Line_Type
  70
32
  10
1818990.32
  20
3215925.82
  30
3268
  0
VERTEX
  8
Unknown_Line_Type
  70
32
  10
1818992.91
  20
3215925.09
  30
3268
  0
VERTEX
  8
Unknown_Line_Type
  70
32
  10
1818994.28
  20
3215924.66
  30
3268
  0
VERTEX
  8
Unknown_Line_Type
  70
32
  10
1818997.01
  20
3215923.69
  30
3268
  0
VERTEX
  8
Unknown_Line_Type
  70
32
  10
1819001.55
  20
3215921.84
  30
3268
  0
VERTEX
  8
Unknown_Line_Type
  70
32
  10
1819003.16
  20
3215921.24
  30
3268
  0
VERTEX
  8
Unknown_Line_Type
  70
32
  10
1819004.58
  20
3215920.77
  30
3268
  0
VERTEX
  8
Unknown_Line_Type
  70
32
  10
1819007.47
  20
3215919.95
  30
3268
  0
VERTEX
  8
Unknown_Line_Type
  70
32
  10
1819013.88
  20
3215918.27
  30
3268
  0
VERTEX
  8
Unknown_Line_Type
  70
32
  10
1819015.54
  20
3215917.88
  30
3268
  0
VERTEX
  8
Unknown_Line_Type
  70
32
  10
1819018.62
  20
3215917.26
  30
3268
  0
VERTEX
  8
Unknown_Line_Type
  70
32
  10
1819021.72
  20
3215916.74
  30
3268
  0
VERTEX
  8
Unknown_Line_Type
  70
32
  10
1819024.75
  20
3215916.28
  30
3268
  0
VERTEX
  8
Unknown_Line_Type
  70
32
  10
1819027.79
  20
3215915.88
  30
3268
  0
VERTEX
  8
Unknown_Line_Type
  70
32
  10
1819031.81
  20
3215915.41
  30
3268
  0
VERTEX
  8
Unknown_Line_Type
  70
32
  10
1819035.25
  20
3215914.92
  30
3268
  0
VERTEX
  8
Unknown_Line_Type
  70
32
  10
1819036.75
  20
3215914.67
  30
3268
  0
VERTEX
  8
Unknown_Line_Type
  70
32
  10
1819039.74
  20
3215914.08
  30
3268
  0
VERTEX
  8
Unknown_Line_Type
  70
32
  10
1819042.75
  20
3215913.38
  30
3268
  0
VERTEX
  8
Unknown_Line_Type
  70
32
  10
1819045.75
  20
3215912.58
  30
3268
  0
VERTEX
  8
Unknown_Line_Type
  70
32
  10
1819055.77
  20
3215909.67
  30
3268
  0
VERTEX
  8
Unknown_Line_Type
  70
32
  10
1819057.50
  20
3215909.10
  30
3268
  0
VERTEX
  8
Unknown_Line_Type
  70
32
  10
1819059.07
  20
3215908.50
  30
3268
  0
VERTEX
  8
Unknown_Line_Type
  70
32
  10
1819060.03
  20
3215908.10
  30
3268
  0
VERTEX
  8
Unknown_Line_Type
  70
32
  10
1819061.73
  20
3215907.30
  30
3268
  0
VERTEX
  8
Unknown_Line_Type
  70
32
  10
1819063.41
  20
3215906.44
  30
3268
  0
VERTEX
  8
Unknown_Line_Type
  70
32
  10
1819068.39
  20
3215903.69
  30
3268
  0
VERTEX
  8
Unknown_Line_Type
  70
32
  10
1819071.86
  20
3215901.89
  30
3268
  0
VERTEX
  8
Unknown_Line_Type
  70
32
  10
1819077.14
  20
3215899.34
  30
3268
  0
VERTEX
  8
Unknown_Line_Type
  70
32
  10
1819081.60
  20
3215897.29
  30
3268
  0
VERTEX
  8
Unknown_Line_Type
  70
32
  10
1819083.10
  20
3215896.66
  30
3268
  0
VERTEX
  8
Unknown_Line_Type
  70
32
  10
1819085.58
  20
3215895.72
  30
3268
  0
VERTEX
  8
Unknown_Line_Type
  70
32
  10
1819087.44
  20
3215895.10
  30
3268
  0
VERTEX
  8
Unknown_Line_Type
  70
32
  10
1819089.33
  20
3215894.54
  30
3268
  0
VERTEX
  8
Unknown_Line_Type
  70
32
  10
1819091.23
  20
3215894.02
  30
3268
  0
VERTEX
  8
Unknown_Line_Type
  70
32
  10
1819094.83
  20
3215893.17
  30
3268
  0
VERTEX
  8
Unknown_Line_Type
  70
32
  10
1819096.53
  20
3215892.82
  30
3268
  0
VERTEX
  8
Unknown_Line_Type
  70
32
  10
1819098.99
  20
3215892.39
  30
3268
  0
VERTEX
  8
Unknown_Line_Type
  70
32
  10
1819101.34
  20
3215892.08
  30
3268
  0
VERTEX
  8
Unknown_Line_Type
  70
32
  10
1819108.12
  20
3215891.37
  30
3268
  0
VERTEX
  8
Unknown_Line_Type
  70
32
  10
1819109.80
  20
3215891.14
  30
3268
  0
VERTEX
  8
Unknown_Line_Type
  70
32
  10
1819114.85
  20
3215890.27
  30
3268
  0
VERTEX
  8
Unknown_Line_Type
  70
32
  10
1819116.04
  20
3215890.09
  30
3268
  0
VERTEX
  8
Unknown_Line_Type
  70
32
  10
1819117.85
  20
3215889.88
  30
3268
  0
VERTEX
  8
Unknown_Line_Type
  70
32
  10
1819119.66
  20
3215889.75
  30
3268
  0
VERTEX
  8
Unknown_Line_Type
  70
32
  10
1819121.50
  20
3215889.67
  30
3268
  0
VERTEX
  8
Unknown_Line_Type
  70
32
  10
1819123.57
  20
3215889.64
  30
3268
  0
VERTEX
  8
Unknown_Line_Type
  70
32
  10
1819125.79
  20
3215889.66
  30
3268
  0
VERTEX
  8
Unknown_Line_Type
  70
32
  10
1819128.13
  20
3215889.72
  30
3268
  0
VERTEX
  8
Unknown_Line_Type
  70
32
  10
1819130.49
  20
3215889.84
  30
3268
  0
VERTEX
  8
Unknown_Line_Type
  70
32
  10
1819132.80
  20
3215890.02
  30
3268
  0
VERTEX
  8
Unknown_Line_Type
  70
32
  10
1819138.85
  20
3215890.68
  30
3268
  0
VERTEX
  8
Unknown_Line_Type
  70
32
  10
1819140.39
  20
3215890.79
  30
3268
  0
VERTEX
  8
Unknown_Line_Type
  70
32
  10
1819140.64
  20
3215890.77
  30
3268
  0
SEQEND
  8
Unknown_Line_Type
  0
POLYLINE
  8
Unknown_Line_Type
  70
8
  66
1
 62
0
 39
0
  0
VERTEX
  8
Unknown_Line_Type
  70
32
  10
1818958.00
  20
3215942.46
  30
3270
  0
VERTEX
  8
Unknown_Line_Type
  70
32
  10
1818961.56
  20
3215941.63
  30
3270
  0
VERTEX
  8
Unknown_Line_Type
  70
32
  10
1818967.51
  20
3215940.10
  30
3270
  0
VERTEX
  8
Unknown_Line_Type
  70
32
  10
1818971.61
  20
3215938.95
  30
3270
  0
VERTEX
  8
Unknown_Line_Type
  70
32
  10
1818973.57
  20
3215938.33
  30
3270
  0
VERTEX
  8
Unknown_Line_Type
  70
32
  10
1818975.37
  20
3215937.69
  30
3270
  0
VERTEX
  8
Unknown_Line_Type
  70
32
  10
1818976.97
  20
3215937.03
  30
3270
  0
VERTEX
  8
Unknown_Line_Type
  70
32
  10
1818978.62
  20
3215936.24
  30
3270
  0
VERTEX
  8
Unknown_Line_Type
  70
32
  10
1818983.49
  20
3215933.74
  30
3270
  0
VERTEX
  8
Unknown_Line_Type
  70
32
  10
1818984.80
  20
3215933.11
  30
3270
  0
VERTEX
  8
Unknown_Line_Type
  70
32
  10
1818987.75
  20
3215931.79
  30
3270
  0
VERTEX
  8
Unknown_Line_Type
  70
32
  10
1818989.40
  20
3215931.15
  30
3270
  0
VERTEX
  8
Unknown_Line_Type
  70
32
  10
1818991.03
  20
3215930.59
  30
3270
  0
VERTEX
  8
Unknown_Line_Type
  70
32
  10
1818992.67
  20
3215930.16
  30
3270
  0
VERTEX
  8
Unknown_Line_Type
  70
32
  10
1818994.18
  20
3215929.89
  30
3270
  0
VERTEX
  8
Unknown_Line_Type
  70
32
  10
1818996.34
  20
3215929.55
  30
3270
  0
VERTEX
  8
Unknown_Line_Type
  70
32
  10
1818997.42
  20
3215929.31
  30
3270
  0
VERTEX
  8
Unknown_Line_Type
  70
32
  10
1818998.50
  20
3215929.00
  30
3270
  0
VERTEX
  8
Unknown_Line_Type
  70
32
  10
1818999.73
  20
3215928.57
  30
3270
  0
VERTEX
  8
Unknown_Line_Type
  70
32
  10
1819000.96
  20
3215928.07
  30
3270
  0
VERTEX
  8
Unknown_Line_Type
  70
32
  10
1819005.57
  20
3215925.93
  30
3270
  0
VERTEX
  8
Unknown_Line_Type
  70
32
  10
1819007.14
  20
3215925.25
  30
3270
  0
VERTEX
  8
Unknown_Line_Type
  70
32
  10
1819008.75
  20
3215924.64
  30
3270
  0
VERTEX
  8
Unknown_Line_Type
  70
32
  10
1819010.45
  20
3215924.12
  30
3270
  0
VERTEX
  8
Unknown_Line_Type
  70
32
  10
1819012.18
  20
3215923.70
  30
3270
  0
VERTEX
  8
Unknown_Line_Type
  70
32
  10
1819013.95
  20
3215923.36
  30
3270
  0
VERTEX
  8
Unknown_Line_Type
  70
32
  10
1819015.74
  20
3215923.07
  30
3270
  0
VERTEX
  8
Unknown_Line_Type
  70
32
  10
1819017.54
  20
3215922.82
  30
3270
  0
VERTEX
  8
Unknown_Line_Type
  70
32
  10
1819028.23
  20
3215921.52
  30
3270
  0
VERTEX
  8
Unknown_Line_Type
  70
32
  10
1819031.28
  20
3215921.23
  30
3270
  0
VERTEX
  8
Unknown_Line_Type
  70
32
  10
1819035.61
  20
3215920.88
  30
3270
  0
VERTEX
  8
Unknown_Line_Type
  70
32
  10
1819037.99
  20
3215920.58
  30
3270
  0
VERTEX
  8
Unknown_Line_Type
  70
32
  10
1819038.97
  20
3215920.41
  30
3270
  0
VERTEX
  8
Unknown_Line_Type
  70
32
  10
1819040.68
  20
3215920.04
  30
3270
  0
VERTEX
  8
Unknown_Line_Type
  70
32
  10
1819042.37
  20
3215919.61
  30
3270
  0
VERTEX
  8
Unknown_Line_Type
  70
32
  10
1819044.04
  20
3215919.12
  30
3270
  0
VERTEX
  8
Unknown_Line_Type
  70
32
  10
1819045.63
  20
3215918.59
  30
3270
  0
VERTEX
  8
Unknown_Line_Type
  70
32
  10
1819051.92
  20
3215916.30
  30
3270
  0
VERTEX
  8
Unknown_Line_Type
  70
32
  10
1819057.78
  20
3215914.31
  30
3270
  0
VERTEX
  8
Unknown_Line_Type
  70
32
  10
1819059.48
  20
3215913.69
  30
3270
  0
VERTEX
  8
Unknown_Line_Type
  70
32
  10
1819062.24
  20
3215912.58
  30
3270
  0
VERTEX
  8
Unknown_Line_Type
  70
32
  10
1819063.59
  20
3215911.98
  30
3270
  0
VERTEX
  8
Unknown_Line_Type
  70
32
  10
1819064.93
  20
3215911.32
  30
3270
  0
VERTEX
  8
Unknown_Line_Type
  70
32
  10
1819066.74
  20
3215910.34
  30
3270
  0
VERTEX
  8
Unknown_Line_Type
  70
32
  10
1819068.38
  20
3215909.37
  30
3270
  0
VERTEX
  8
Unknown_Line_Type
  70
32
  10
1819070.01
  20
3215908.36
  30
3270
  0
VERTEX
  8
Unknown_Line_Type
  70
32
  10
1819074.86
  20
3215905.27
  30
3270
  0
VERTEX
  8
Unknown_Line_Type
  70
32
  10
1819076.51
  20
3215904.29
  30
3270
  0
VERTEX
  8
Unknown_Line_Type
  70
32
  10
1819079.19
  20
3215902.84
  30
3270
  0
VERTEX
  8
Unknown_Line_Type
  70
32
  10
1819081.01
  20
3215901.93
  30
3270
  0
VERTEX
  8
Unknown_Line_Type
  70
32
  10
1819082.47
  20
3215901.26
  30
3270
  0
VERTEX
  8
Unknown_Line_Type
  70
32
  10
1819085.42
  20
3215900.02
  30
3270
  0
VERTEX
  8
Unknown_Line_Type
  70
32
  10
1819086.92
  20
3215899.46
  30
3270
  0
VERTEX
  8
Unknown_Line_Type
  70
32
  10
1819088.44
  20
3215898.95
  30
3270
  0
VERTEX
  8
Unknown_Line_Type
  70
32
  10
1819090.22
  20
3215898.41
  30
3270
  0
VERTEX
  8
Unknown_Line_Type
  70
32
  10
1819092.02
  20
3215897.94
  30
3270
  0
VERTEX
  8
Unknown_Line_Type
  70
32
  10
1819093.83
  20
3215897.52
  30
3270
  0
VERTEX
  8
Unknown_Line_Type
  70
32
  10
1819095.52
  20
3215897.19
  30
3270
  0
VERTEX
  8
Unknown_Line_Type
  70
32
  10
1819098.91
  20
3215896.63
  30
3270
  0
VERTEX
  8
Unknown_Line_Type
  70
32
  10
1819102.33
  20
3215896.23
  30
3270
  0
VERTEX
  8
Unknown_Line_Type
  70
32
  10
1819110.68
  20
3215895.58
  30
3270
  0
VERTEX
  8
Unknown_Line_Type
  70
32
  10
1819112.80
  20
3215895.36
  30
3270
  0
VERTEX
  8
Unknown_Line_Type
  70
32
  10
1819116.81
  20
3215894.87
  30
3270
  0
VERTEX
  8
Unknown_Line_Type
  70
32
  10
1819118.70
  20
3215894.71
  30
3270
  0
VERTEX
  8
Unknown_Line_Type
  70
32
  10
1819120.85
  20
3215894.60
  30
3270
  0
VERTEX
  8
Unknown_Line_Type
  70
32
  10
1819130.61
  20
3215894.28
  30
3270
  0
VERTEX
  8
Unknown_Line_Type
  70
32
  10
1819137.74
  20
3215893.87
  30
3270
  0
SEQEND
  8
Unknown_Line_Type
  0
POLYLINE
  8
Unknown_Line_Type
  70
8
  66
1
 62
0
 39
0
  0
VERTEX
  8
Unknown_Line_Type
  70
32
  10
1818958.00
  20
3215947.42
  30
3272
  0
VERTEX
  8
Unknown_Line_Type
  70
32
  10
1818958.74
  20
3215947.24
  30
3272
  0
VERTEX
  8
Unknown_Line_Type
  70
32
  10
1818963.87
  20
3215946.24
  30
3272
  0
VERTEX
  8
Unknown_Line_Type
  70
32
  10
1818970.59
  20
3215944.86
  30
3272
  0
VERTEX
  8
Unknown_Line_Type
  70
32
  10
1818975.08
  20
3215943.87
  30
3272
  0
VERTEX
  8
Unknown_Line_Type
  70
32
  10
1818976.94
  20
3215943.38
  30
3272
  0
VERTEX
  8
Unknown_Line_Type
  70
32
  10
1818977.79
  20
3215943.13
  30
3272
  0
VERTEX
  8
Unknown_Line_Type
  70
32
  10
1818979.28
  20
3215942.63
  30
3272
  0
VERTEX
  8
Unknown_Line_Type
  70
32
  10
1818982.18
  20
3215941.56
  30
3272
  0
VERTEX
  8
Unknown_Line_Type
  70
32
  10
1818983.63
  20
3215941.07
  30
3272
  0
VERTEX
  8
Unknown_Line_Type
  70
32
  10
1818985.09
  20
3215940.65
  30
3272
  0
VERTEX
  8
Unknown_Line_Type
  70
32
  10
1818989.38
  20
3215939.76
  30
3272
  0
VERTEX
  8
Unknown_Line_Type
  70
32
  10
1818990.49
  20
3215939.47
  30
3272
  0
VERTEX
  8
Unknown_Line_Type
  70
32
  10
1818991.60
  20
3215939.12
  30
3272
  0
VERTEX
  8
Unknown_Line_Type
  70
32
  10
1818992.80
  20
3215938.67
  30
3272
  0
VERTEX
  8
Unknown_Line_Type
  70
32
  10
1818994.32
  20
3215938.01
  30
3272
  0
VERTEX
  8
Unknown_Line_Type
  70
32
  10
1818995.82
  20
3215937.27
  30
3272
  0
VERTEX
  8
Unknown_Line_Type
  70
32
  10
1818999.38
  20
3215935.39
  30
3272
  0
VERTEX
  8
Unknown_Line_Type
  70
32
  10
1819002.89
  20
3215933.61
  30
3272
  0
VERTEX
  8
Unknown_Line_Type
  70
32
  10
1819009.33
  20
3215930.07
  30
3272
  0
VERTEX
  8
Unknown_Line_Type
  70
32
  10
1819010.96
  20
3215929.23
  30
3272
  0
VERTEX
  8
Unknown_Line_Type
  70
32
  10
1819012.59
  20
3215928.46
  30
3272
  0
VERTEX
  8
Unknown_Line_Type
  70
32
  10
1819014.26
  20
3215927.81
  30
3272
  0
VERTEX
  8
Unknown_Line_Type
  70
32
  10
1819016.02
  20
3215927.27
  30
3272
  0
VERTEX
  8
Unknown_Line_Type
  70
32
  10
1819017.81
  20
3215926.85
  30
3272
  0
VERTEX
  8
Unknown_Line_Type
  70
32
  10
1819020.45
  20
3215926.41
  30
3272
  0
VERTEX
  8
Unknown_Line_Type
  70
32
  10
1819023.34
  20
3215926.05
  30
3272
  0
VERTEX
  8
Unknown_Line_Type
  70
32
  10
1819026.47
  20
3215925.77
  30
3272
  0
VERTEX
  8
Unknown_Line_Type
  70
32
  10
1819028.86
  20
3215925.65
  30
3272
  0
VERTEX
  8
Unknown_Line_Type
  70
32
  10
1819030.75
  20
3215925.64
  30
3272
  0
VERTEX
  8
Unknown_Line_Type
  70
32
  10
1819036.39
  20
3215925.74
  30
3272
  0
VERTEX
  8
Unknown_Line_Type
  70
32
  10
1819038.25
  20
3215925.68
  30
3272
  0
VERTEX
  8
Unknown_Line_Type
  70
32
  10
1819040.09
  20
3215925.51
  30
3272
  0
VERTEX
  8
Unknown_Line_Type
  70
32
  10
1819041.85
  20
3215925.20
  30
3272
  0
VERTEX
  8
Unknown_Line_Type
  70
32
  10
1819043.43
  20
3215924.81
  30
3272
  0
VERTEX
  8
Unknown_Line_Type
  70
32
  10
1819044.99
  20
3215924.33
  30
3272
  0
VERTEX
  8
Unknown_Line_Type
  70
32
  10
1819046.44
  20
3215923.85
  30
3272
  0
VERTEX
  8
Unknown_Line_Type
  70
32
  10
1819049.33
  20
3215922.81
  30
3272
  0
VERTEX
  8
Unknown_Line_Type
  70
32
  10
1819056.41
  20
3215920.07
  30
3272
  0
VERTEX
  8
Unknown_Line_Type
  70
32
  10
1819062.19
  20
3215917.92
  30
3272
  0
VERTEX
  8
Unknown_Line_Type
  70
32
  10
1819064.90
  20
3215916.86
  30
3272
  0
VERTEX
  8
Unknown_Line_Type
  70
32
  10
1819068.20
  20
3215915.48
  30
3272
  0
VERTEX
  8
Unknown_Line_Type
  70
32
  10
1819069.76
  20
3215914.77
  30
3272
  0
VERTEX
  8
Unknown_Line_Type
  70
32
  10
1819071.29
  20
3215914.02
  30
3272
  0
VERTEX
  8
Unknown_Line_Type
  70
32
  10
1819072.81
  20
3215913.22
  30
3272
  0
VERTEX
  8
Unknown_Line_Type
  70
32
  10
1819074.48
  20
3215912.27
  30
3272
  0
VERTEX
  8
Unknown_Line_Type
  70
32
  10
1819076.12
  20
3215911.28
  30
3272
  0
VERTEX
  8
Unknown_Line_Type
  70
32
  10
1819080.75
  20
3215908.39
  30
3272
  0
VERTEX
  8
Unknown_Line_Type
  70
32
  10
1819082.12
  20
3215907.58
  30
3272
  0
VERTEX
  8
Unknown_Line_Type
  70
32
  10
1819083.50
  20
3215906.79
  30
3272
  0
VERTEX
  8
Unknown_Line_Type
  70
32
  10
1819085.22
  20
3215905.90
  30
3272
  0
VERTEX
  8
Unknown_Line_Type
  70
32
  10
1819086.97
  20
3215905.08
  30
3272
  0
VERTEX
  8
Unknown_Line_Type
  70
32
  10
1819088.75
  20
3215904.33
  30
3272
  0
VERTEX
  8
Unknown_Line_Type
  70
32
  10
1819090.56
  20
3215903.64
  30
3272
  0
VERTEX
  8
Unknown_Line_Type
  70
32
  10
1819092.32
  20
3215903.06
  30
3272
  0
VERTEX
  8
Unknown_Line_Type
  70
32
  10
1819094.10
  20
3215902.54
  30
3272
  0
VERTEX
  8
Unknown_Line_Type
  70
32
  10
1819095.89
  20
3215902.06
  30
3272
  0
VERTEX
  8
Unknown_Line_Type
  70
32
  10
1819097.70
  20
3215901.64
  30
3272
  0
VERTEX
  8
Unknown_Line_Type
  70
32
  10
1819099.52
  20
3215901.26
  30
3272
  0
VERTEX
  8
Unknown_Line_Type
  70
32
  10
1819101.39
  20
3215900.92
  30
3272
  0
VERTEX
  8
Unknown_Line_Type
  70
32
  10
1819103.27
  20
3215900.62
  30
3272
  0
VERTEX
  8
Unknown_Line_Type
  70
32
  10
1819105.15
  20
3215900.36
  30
3272
  0
VERTEX
  8
Unknown_Line_Type
  70
32
  10
1819107.04
  20
3215900.15
  30
3272
  0
VERTEX
  8
Unknown_Line_Type
  70
32
  10
1819111.44
  20
3215899.78
  30
3272
  0
VERTEX
  8
Unknown_Line_Type
  70
32
  10
1819118.21
  20
3215899.31
  30
3272
  0
VERTEX
  8
Unknown_Line_Type
  70
32
  10
1819120.65
  20
3215899.17
  30
3272
  0
VERTEX
  8
Unknown_Line_Type
  70
32
  10
1819129.81
  20
3215898.72
  30
3272
  0
VERTEX
  8
Unknown_Line_Type
  70
32
  10
1819131.96
  20
3215898.66
  30
3272
  0
VERTEX
  8
Unknown_Line_Type
  70
32
  10
1819132.68
  20
3215898.67
  30
3272
  0
VERTEX
  8
Unknown_Line_Type
  70
32
  10
1819133.20
  20
3215898.72
  30
3272
  0
SEQEND
  8
Unknown_Line_Type
  0
POLYLINE
  8
Unknown_Line_Type
  70
8
  66
1
 62
0
 39
0
  0
VERTEX
  8
Unknown_Line_Type
  70
32
  10
1818958.00
  20
3215951.57
  30
3274
  0
VERTEX
  8
Unknown_Line_Type
  70
32
  10
1818958.29
  20
3215951.44
  30
3274
  0
VERTEX
  8
Unknown_Line_Type
  70
32
  10
1818959.12
  20
3215951.22
  30
3274
  0
VERTEX
  8
Unknown_Line_Type
  70
32
  10
1818960.42
  20
3215950.93
  30
3274
  0
VERTEX
  8
Unknown_Line_Type
  70
32
  10
1818962.10
  20
3215950.63
  30
3274
  0
VERTEX
  8
Unknown_Line_Type
  70
32
  10
1818964.07
  20
3215950.35
  30
3274
  0
VERTEX
  8
Unknown_Line_Type
  70
32
  10
1818966.25
  20
3215950.10
  30
3274
  0
VERTEX
  8
Unknown_Line_Type
  70
32
  10
1818974.52
  20
3215949.41
  30
3274
  0
VERTEX
  8
Unknown_Line_Type
  70
32
  10
1818976.60
  20
3215949.21
  30
3274
  0
VERTEX
  8
Unknown_Line_Type
  70
32
  10
1818979.90
  20
3215948.82
  30
3274
  0
VERTEX
  8
Unknown_Line_Type
  70
32
  10
1818981.36
  20
3215948.59
  30
3274
  0
VERTEX
  8
Unknown_Line_Type
  70
32
  10
1818985.99
  20
3215947.66
  30
3274
  0
VERTEX
  8
Unknown_Line_Type
  70
32
  10
1818987.52
  20
3215947.31
  30
3274
  0
VERTEX
  8
Unknown_Line_Type
  70
32
  10
1818989.05
  20
3215946.92
  30
3274
  0
VERTEX
  8
Unknown_Line_Type
  70
32
  10
1818990.58
  20
3215946.50
  30
3274
  0
VERTEX
  8
Unknown_Line_Type
  70
32
  10
1818992.09
  20
3215946.02
  30
3274
  0
VERTEX
  8
Unknown_Line_Type
  70
32
  10
1818993.60
  20
3215945.51
  30
3274
  0
VERTEX
  8
Unknown_Line_Type
  70
32
  10
1818994.96
  20
3215944.98
  30
3274
  0
VERTEX
  8
Unknown_Line_Type
  70
32
  10
1818996.31
  20
3215944.41
  30
3274
  0
VERTEX
  8
Unknown_Line_Type
  70
32
  10
1818997.63
  20
3215943.77
  30
3274
  0
VERTEX
  8
Unknown_Line_Type
  70
32
  10
1818998.99
  20
3215943.04
  30
3274
  0
VERTEX
  8
Unknown_Line_Type
  70
32
  10
1819000.33
  20
3215942.25
  30
3274
  0
VERTEX
  8
Unknown_Line_Type
  70
32
  10
1819001.85
  20
3215941.29
  30
3274
  0
VERTEX
  8
Unknown_Line_Type
  70
32
  10
1819004.88
  20
3215939.31
  30
3274
  0
VERTEX
  8
Unknown_Line_Type
  70
32
  10
1819007.49
  20
3215937.67
  30
3274
  0
VERTEX
  8
Unknown_Line_Type
  70
32
  10
1819010.39
  20
3215935.95
  30
3274
  0
VERTEX
  8
Unknown_Line_Type
  70
32
  10
1819011.84
  20
3215935.13
  30
3274
  0
VERTEX
  8
Unknown_Line_Type
  70
32
  10
1819013.32
  20
3215934.37
  30
3274
  0
VERTEX
  8
Unknown_Line_Type
  70
32
  10
1819014.81
  20
3215933.68
  30
3274
  0
VERTEX
  8
Unknown_Line_Type
  70
32
  10
1819015.80
  20
3215933.29
  30
3274
  0
VERTEX
  8
Unknown_Line_Type
  70
32
  10
1819016.80
  20
3215932.93
  30
3274
  0
VERTEX
  8
Unknown_Line_Type
  70
32
  10
1819018.33
  20
3215932.49
  30
3274
  0
VERTEX
  8
Unknown_Line_Type
  70
32
  10
1819019.83
  20
3215932.22
  30
3274
  0
VERTEX
  8
Unknown_Line_Type
  70
32
  10
1819021.36
  20
3215932.07
  30
3274
  0
VERTEX
  8
Unknown_Line_Type
  70
32
  10
1819022.77
  20
3215932.02
  30
3274
  0
VERTEX
  8
Unknown_Line_Type
  70
32
  10
1819027.41
  20
3215932.09
  30
3274
  0
VERTEX
  8
Unknown_Line_Type
  70
32
  10
1819030.99
  20
3215932.08
  30
3274
  0
VERTEX
  8
Unknown_Line_Type
  70
32
  10
1819034.58
  20
3215931.98
  30
3274
  0
VERTEX
  8
Unknown_Line_Type
  70
32
  10
1819037.74
  20
3215931.79
  30
3274
  0
VERTEX
  8
Unknown_Line_Type
  70
32
  10
1819039.11
  20
3215931.65
  30
3274
  0
VERTEX
  8
Unknown_Line_Type
  70
32
  10
1819040.46
  20
3215931.44
  30
3274
  0
VERTEX
  8
Unknown_Line_Type
  70
32
  10
1819041.97
  20
3215931.11
  30
3274
  0
VERTEX
  8
Unknown_Line_Type
  70
32
  10
1819043.45
  20
3215930.66
  30
3274
  0
VERTEX
  8
Unknown_Line_Type
  70
32
  10
1819045.14
  20
3215929.98
  30
3274
  0
VERTEX
  8
Unknown_Line_Type
  70
32
  10
1819050.34
  20
3215927.44
  30
3274
  0
VERTEX
  8
Unknown_Line_Type
  70
32
  10
1819052.98
  20
3215926.30
  30
3274
  0
VERTEX
  8
Unknown_Line_Type
  70
32
  10
1819056.04
  20
3215925.12
  30
3274
  0
VERTEX
  8
Unknown_Line_Type
  70
32
  10
1819067.75
  20
3215920.82
  30
3274
  0
VERTEX
  8
Unknown_Line_Type
  70
32
  10
1819070.77
  20
3215919.64
  30
3274
  0
VERTEX
  8
Unknown_Line_Type
  70
32
  10
1819075.76
  20
3215917.58
  30
3274
  0
VERTEX
  8
Unknown_Line_Type
  70
32
  10
1819078.63
  20
3215916.33
  30
3274
  0
VERTEX
  8
Unknown_Line_Type
  70
32
  10
1819081.43
  20
3215915.02
  30
3274
  0
VERTEX
  8
Unknown_Line_Type
  70
32
  10
1819088.21
  20
3215911.56
  30
3274
  0
VERTEX
  8
Unknown_Line_Type
  70
32
  10
1819089.56
  20
3215910.91
  30
3274
  0
VERTEX
  8
Unknown_Line_Type
  70
32
  10
1819090.74
  20
3215910.38
  30
3274
  0
VERTEX
  8
Unknown_Line_Type
  70
32
  10
1819091.93
  20
3215909.89
  30
3274
  0
VERTEX
  8
Unknown_Line_Type
  70
32
  10
1819093.70
  20
3215909.25
  30
3274
  0
VERTEX
  8
Unknown_Line_Type
  70
32
  10
1819095.50
  20
3215908.66
  30
3274
  0
VERTEX
  8
Unknown_Line_Type
  70
32
  10
1819097.31
  20
3215908.13
  30
3274
  0
VERTEX
  8
Unknown_Line_Type
  70
32
  10
1819100.98
  20
3215907.18
  30
3274
  0
VERTEX
  8
Unknown_Line_Type
  70
32
  10
1819108.45
  20
3215905.46
  30
3274
  0
VERTEX
  8
Unknown_Line_Type
  70
32
  10
1819110.43
  20
3215905.02
  30
3274
  0
VERTEX
  8
Unknown_Line_Type
  70
32
  10
1819112.67
  20
3215904.56
  30
3274
  0
VERTEX
  8
Unknown_Line_Type
  70
32
  10
1819115.09
  20
3215904.16
  30
3274
  0
VERTEX
  8
Unknown_Line_Type
  70
32
  10
1819116.93
  20
3215903.93
  30
3274
  0
VERTEX
  8
Unknown_Line_Type
  70
32
  10
1819118.77
  20
3215903.77
  30
3274
  0
VERTEX
  8
Unknown_Line_Type
  70
32
  10
1819120.57
  20
3215903.66
  30
3274
  0
VERTEX
  8
Unknown_Line_Type
  70
32
  10
1819122.35
  20
3215903.60
  30
3274
  0
VERTEX
  8
Unknown_Line_Type
  70
32
  10
1819123.99
  20
3215903.61
  30
3274
  0
VERTEX
  8
Unknown_Line_Type
  70
32
  10
1819125.43
  20
3215903.67
  30
3274
  0
VERTEX
  8
Unknown_Line_Type
  70
32
  10
1819126.91
  20
3215903.80
  30
3274
  0
VERTEX
  8
Unknown_Line_Type
  70
32
  10
1819127.87
  20
3215903.95
  30
3274
  0
VERTEX
  8
Unknown_Line_Type
  70
32
  10
1819128.21
  20
3215904.06
  30
3274
  0
SEQEND
  8
Unknown_Line_Type
  0
POLYLINE
  8
Unknown_Line_Type
  70
8
  66
1
 62
0
 39
0
  0
VERTEX
  8
Unknown_Line_Type
  70
32
  10
1818958.00
  20
3215957.53
  30
3276
  0
VERTEX
  8
Unknown_Line_Type
  70
32
  10
1818958.80
  20
3215957.29
  30
3276
  0
VERTEX
  8
Unknown_Line_Type
  70
32
  10
1818959.73
  20
3215957.06
  30
3276
  0
VERTEX
  8
Unknown_Line_Type
  70
32
  10
1818963.82
  20
3215956.22
  30
3276
  0
VERTEX
  8
Unknown_Line_Type
  70
32
  10
1818967.36
  20
3215955.60
  30
3276
  0
VERTEX
  8
Unknown_Line_Type
  70
32
  10
1818971.61
  20
3215954.99
  30
3276
  0
VERTEX
  8
Unknown_Line_Type
  70
32
  10
1818973.67
  20
3215954.76
  30
3276
  0
VERTEX
  8
Unknown_Line_Type
  70
32
  10
1818975.60
  20
3215954.60
  30
3276
  0
VERTEX
  8
Unknown_Line_Type
  70
32
  10
1818977.19
  20
3215954.52
  30
3276
  0
VERTEX
  8
Unknown_Line_Type
  70
32
  10
1818982.71
  20
3215954.43
  30
3276
  0
VERTEX
  8
Unknown_Line_Type
  70
32
  10
1818984.24
  20
3215954.33
  30
3276
  0
VERTEX
  8
Unknown_Line_Type
  70
32
  10
1818985.99
  20
3215954.07
  30
3276
  0
VERTEX
  8
Unknown_Line_Type
  70
32
  10
1818987.74
  20
3215953.69
  30
3276
  0
VERTEX
  8
Unknown_Line_Type
  70
32
  10
1818989.50
  20
3215953.24
  30
3276
  0
VERTEX
  8
Unknown_Line_Type
  70
32
  10
1818992.53
  20
3215952.39
  30
3276
  0
VERTEX
  8
Unknown_Line_Type
  70
32
  10
1818995.58
  20
3215951.47
  30
3276
  0
VERTEX
  8
Unknown_Line_Type
  70
32
  10
1818997.36
  20
3215950.90
  30
3276
  0
VERTEX
  8
Unknown_Line_Type
  70
32
  10
1819000.88
  20
3215949.66
  30
3276
  0
VERTEX
  8
Unknown_Line_Type
  70
32
  10
1819006.35
  20
3215947.50
  30
3276
  0
VERTEX
  8
Unknown_Line_Type
  70
32
  10
1819007.77
  20
3215947.01
  30
3276
  0
VERTEX
  8
Unknown_Line_Type
  70
32
  10
1819009.48
  20
3215946.54
  30
3276
  0
VERTEX
  8
Unknown_Line_Type
  70
32
  10
1819016.09
  20
3215945.05
  30
3276
  0
VERTEX
  8
Unknown_Line_Type
  70
32
  10
1819019.09
  20
3215944.28
  30
3276
  0
VERTEX
  8
Unknown_Line_Type
  70
32
  10
1819023.37
  20
3215943.07
  30
3276
  0
VERTEX
  8
Unknown_Line_Type
  70
32
  10
1819028.94
  20
3215941.37
  30
3276
  0
VERTEX
  8
Unknown_Line_Type
  70
32
  10
1819030.46
  20
3215940.99
  30
3276
  0
VERTEX
  8
Unknown_Line_Type
  70
32
  10
1819032.00
  20
3215940.64
  30
3276
  0
VERTEX
  8
Unknown_Line_Type
  70
32
  10
1819036.65
  20
3215939.67
  30
3276
  0
VERTEX
  8
Unknown_Line_Type
  70
32
  10
1819038.30
  20
3215939.28
  30
3276
  0
VERTEX
  8
Unknown_Line_Type
  70
32
  10
1819041.37
  20
3215938.46
  30
3276
  0
VERTEX
  8
Unknown_Line_Type
  70
32
  10
1819042.88
  20
3215937.99
  30
3276
  0
VERTEX
  8
Unknown_Line_Type
  70
32
  10
1819044.37
  20
3215937.48
  30
3276
  0
VERTEX
  8
Unknown_Line_Type
  70
32
  10
1819045.83
  20
3215936.92
  30
3276
  0
VERTEX
  8
Unknown_Line_Type
  70
32
  10
1819047.46
  20
3215936.18
  30
3276
  0
VERTEX
  8
Unknown_Line_Type
  70
32
  10
1819048.81
  20
3215935.46
  30
3276
  0
VERTEX
  8
Unknown_Line_Type
  70
32
  10
1819050.12
  20
3215934.67
  30
3276
  0
VERTEX
  8
Unknown_Line_Type
  70
32
  10
1819053.71
  20
3215932.33
  30
3276
  0
VERTEX
  8
Unknown_Line_Type
  70
32
  10
1819054.88
  20
3215931.65
  30
3276
  0
VERTEX
  8
Unknown_Line_Type
  70
32
  10
1819058.94
  20
3215929.47
  30
3276
  0
VERTEX
  8
Unknown_Line_Type
  70
32
  10
1819060.62
  20
3215928.59
  30
3276
  0
VERTEX
  8
Unknown_Line_Type
  70
32
  10
1819062.32
  20
3215927.76
  30
3276
  0
VERTEX
  8
Unknown_Line_Type
  70
32
  10
1819064.05
  20
3215927.01
  30
3276
  0
VERTEX
  8
Unknown_Line_Type
  70
32
  10
1819065.81
  20
3215926.31
  30
3276
  0
VERTEX
  8
Unknown_Line_Type
  70
32
  10
1819067.59
  20
3215925.65
  30
3276
  0
VERTEX
  8
Unknown_Line_Type
  70
32
  10
1819070.30
  20
3215924.70
  30
3276
  0
VERTEX
  8
Unknown_Line_Type
  70
32
  10
1819076.38
  20
3215922.63
  30
3276
  0
VERTEX
  8
Unknown_Line_Type
  70
32
  10
1819079.59
  20
3215921.44
  30
3276
  0
VERTEX
  8
Unknown_Line_Type
  70
32
  10
1819082.76
  20
3215920.16
  30
3276
  0
VERTEX
  8
Unknown_Line_Type
  70
32
  10
1819088.31
  20
3215917.68
  30
3276
  0
VERTEX
  8
Unknown_Line_Type
  70
32
  10
1819091.87
  20
3215916.13
  30
3276
  0
VERTEX
  8
Unknown_Line_Type
  70
32
  10
1819094.78
  20
3215914.96
  30
3276
  0
VERTEX
  8
Unknown_Line_Type
  70
32
  10
1819096.47
  20
3215914.39
  30
3276
  0
VERTEX
  8
Unknown_Line_Type
  70
32
  10
1819098.19
  20
3215913.87
  30
3276
  0
VERTEX
  8
Unknown_Line_Type
  70
32
  10
1819099.93
  20
3215913.41
  30
3276
  0
VERTEX
  8
Unknown_Line_Type
  70
32
  10
1819103.44
  20
3215912.58
  30
3276
  0
VERTEX
  8
Unknown_Line_Type
  70
32
  10
1819107.32
  20
3215911.77
  30
3276
  0
VERTEX
  8
Unknown_Line_Type
  70
32
  10
1819117.89
  20
3215909.79
  30
3276
  0
VERTEX
  8
Unknown_Line_Type
  70
32
  10
1819119.86
  20
3215909.46
  30
3276
  0
VERTEX
  8
Unknown_Line_Type
  70
32
  10
1819121.46
  20
3215909.28
  30
3276
  0
VERTEX
  8
Unknown_Line_Type
  70
32
  10
1819122.63
  20
3215909.26
  30
3276
  0
VERTEX
  8
Unknown_Line_Type
  70
32
  10
1819123.19
  20
3215909.35
  30
3276
  0
VERTEX
  8
Unknown_Line_Type
  70
32
  10
1819123.23
  20
3215909.39
  30
3276
  0
SEQEND
  8
Unknown_Line_Type
  0
POLYLINE
  8
Unknown_Line_Type
  70
8
  66
1
 62
0
 39
0
  0
VERTEX
  8
Unknown_Line_Type
  70
32
  10
1819117.60
  20
3215915.41
  30
3278
  0
VERTEX
  8
Unknown_Line_Type
  70
32
  10
1819115.17
  20
3215915.63
  30
3278
  0
VERTEX
  8
Unknown_Line_Type
  70
32
  10
1819113.51
  20
3215915.82
  30
3278
  0
VERTEX
  8
Unknown_Line_Type
  70
32
  10
1819111.57
  20
3215916.08
  30
3278
  0
VERTEX
  8
Unknown_Line_Type
  70
32
  10
1819109.53
  20
3215916.40
  30
3278
  0
VERTEX
  8
Unknown_Line_Type
  70
32
  10
1819107.39
  20
3215916.78
  30
3278
  0
VERTEX
  8
Unknown_Line_Type
  70
32
  10
1819105.22
  20
3215917.23
  30
3278
  0
VERTEX
  8
Unknown_Line_Type
  70
32
  10
1819103.09
  20
3215917.73
  30
3278
  0
VERTEX
  8
Unknown_Line_Type
  70
32
  10
1819101.07
  20
3215918.27
  30
3278
  0
VERTEX
  8
Unknown_Line_Type
  70
32
  10
1819099.25
  20
3215918.86
  30
3278
  0
VERTEX
  8
Unknown_Line_Type
  70
32
  10
1819097.54
  20
3215919.53
  30
3278
  0
VERTEX
  8
Unknown_Line_Type
  70
32
  10
1819092.78
  20
3215921.55
  30
3278
  0
VERTEX
  8
Unknown_Line_Type
  70
32
  10
1819089.52
  20
3215922.81
  30
3278
  0
VERTEX
  8
Unknown_Line_Type
  70
32
  10
1819087.73
  20
3215923.44
  30
3278
  0
VERTEX
  8
Unknown_Line_Type
  70
32
  10
1819085.93
  20
3215924.04
  30
3278
  0
VERTEX
  8
Unknown_Line_Type
  70
32
  10
1819083.84
  20
3215924.69
  30
3278
  0
VERTEX
  8
Unknown_Line_Type
  70
32
  10
1819078.61
  20
3215926.18
  30
3278
  0
VERTEX
  8
Unknown_Line_Type
  70
32
  10
1819075.38
  20
3215927.16
  30
3278
  0
VERTEX
  8
Unknown_Line_Type
  70
32
  10
1819072.20
  20
3215928.23
  30
3278
  0
VERTEX
  8
Unknown_Line_Type
  70
32
  10
1819069.29
  20
3215929.38
  30
3278
  0
VERTEX
  8
Unknown_Line_Type
  70
32
  10
1819066.52
  20
3215930.60
  30
3278
  0
VERTEX
  8
Unknown_Line_Type
  70
32
  10
1819065.17
  20
3215931.26
  30
3278
  0
VERTEX
  8
Unknown_Line_Type
  70
32
  10
1819063.73
  20
3215932.05
  30
3278
  0
VERTEX
  8
Unknown_Line_Type
  70
32
  10
1819062.32
  20
3215932.89
  30
3278
  0
VERTEX
  8
Unknown_Line_Type
  70
32
  10
1819060.94
  20
3215933.77
  30
3278
  0
VERTEX
  8
Unknown_Line_Type
  70
32
  10
1819058.24
  20
3215935.59
  30
3278
  0
VERTEX
  8
Unknown_Line_Type
  70
32
  10
1819055.79
  20
3215937.31
  30
3278
  0
VERTEX
  8
Unknown_Line_Type
  70
32
  10
1819053.15
  20
3215939.22
  30
3278
  0
VERTEX
  8
Unknown_Line_Type
  70
32
  10
1819051.95
  20
3215940.03
  30
3278
  0
VERTEX
  8
Unknown_Line_Type
  70
32
  10
1819050.71
  20
3215940.79
  30
3278
  0
VERTEX
  8
Unknown_Line_Type
  70
32
  10
1819049.17
  20
3215941.58
  30
3278
  0
VERTEX
  8
Unknown_Line_Type
  70
32
  10
1819047.57
  20
3215942.29
  30
3278
  0
VERTEX
  8
Unknown_Line_Type
  70
32
  10
1819041.42
  20
3215944.70
  30
3278
  0
VERTEX
  8
Unknown_Line_Type
  70
32
  10
1819039.88
  20
3215945.34
  30
3278
  0
VERTEX
  8
Unknown_Line_Type
  70
32
  10
1819038.36
  20
3215946.02
  30
3278
  0
VERTEX
  8
Unknown_Line_Type
  70
32
  10
1819036.31
  20
3215947.03
  30
3278
  0
VERTEX
  8
Unknown_Line_Type
  70
32
  10
1819034.32
  20
3215948.08
  30
3278
  0
VERTEX
  8
Unknown_Line_Type
  70
32
  10
1819031.11
  20
3215949.95
  30
3278
  0
VERTEX
  8
Unknown_Line_Type
  70
32
  10
1819026.27
  20
3215952.88
  30
3278
  0
VERTEX
  8
Unknown_Line_Type
  70
32
  10
1819024.59
  20
3215953.81
  30
3278
  0
VERTEX
  8
Unknown_Line_Type
  70
32
  10
1819022.99
  20
3215954.61
  30
3278
  0
VERTEX
  8
Unknown_Line_Type
  70
32
  10
1819021.35
  20
3215955.34
  30
3278
  0
VERTEX
  8
Unknown_Line_Type
  70
32
  10
1819019.70
  20
3215956.02
  30
3278
  0
VERTEX
  8
Unknown_Line_Type
  70
32
  10
1819018.05
  20
3215956.63
  30
3278
  0
VERTEX
  8
Unknown_Line_Type
  70
32
  10
1819016.38
  20
3215957.17
  30
3278
  0
VERTEX
  8
Unknown_Line_Type
  70
32
  10
1819014.69
  20
3215957.62
  30
3278
  0
VERTEX
  8
Unknown_Line_Type
  70
32
  10
1819012.94
  20
3215957.98
  30
3278
  0
VERTEX
  8
Unknown_Line_Type
  70
32
  10
1819011.17
  20
3215958.25
  30
3278
  0
VERTEX
  8
Unknown_Line_Type
  70
32
  10
1819003.10
  20
3215959.24
  30
3278
  0
VERTEX
  8
Unknown_Line_Type
  70
32
  10
1818999.70
  20
3215959.61
  30
3278
  0
VERTEX
  8
Unknown_Line_Type
  70
32
  10
1818998.00
  20
3215959.82
  30
3278
  0
VERTEX
  8
Unknown_Line_Type
  70
32
  10
1818996.33
  20
3215960.11
  30
3278
  0
VERTEX
  8
Unknown_Line_Type
  70
32
  10
1818994.51
  20
3215960.53
  30
3278
  0
VERTEX
  8
Unknown_Line_Type
  70
32
  10
1818992.71
  20
3215961.05
  30
3278
  0
VERTEX
  8
Unknown_Line_Type
  70
32
  10
1818989.12
  20
3215962.17
  30
3278
  0
VERTEX
  8
Unknown_Line_Type
  70
32
  10
1818987.33
  20
3215962.70
  30
3278
  0
VERTEX
  8
Unknown_Line_Type
  70
32
  10
1818986.05
  20
3215963.04
  30
3278
  0
VERTEX
  8
Unknown_Line_Type
  70
32
  10
1818983.54
  20
3215963.60
  30
3278
  0
VERTEX
  8
Unknown_Line_Type
  70
32
  10
1818981.66
  20
3215963.93
  30
3278
  0
VERTEX
  8
Unknown_Line_Type
  70
32
  10
1818979.78
  20
3215964.17
  30
3278
  0
VERTEX
  8
Unknown_Line_Type
  70
32
  10
1818977.92
  20
3215964.26
  30
3278
  0
VERTEX
  8
Unknown_Line_Type
  70
32
  10
1818976.86
  20
3215964.23
  30
3278
  0
VERTEX
  8
Unknown_Line_Type
  70
32
  10
1818973.85
  20
3215964.06
  30
3278
  0
VERTEX
  8
Unknown_Line_Type
  70
32
  10
1818971.75
  20
3215964.01
  30
3278
  0
VERTEX
  8
Unknown_Line_Type
  70
32
  10
1818969.88
  20
3215964.05
  30
3278
  0
VERTEX
  8
Unknown_Line_Type
  70
32
  10
1818967.98
  20
3215964.16
  30
3278
  0
VERTEX
  8
Unknown_Line_Type
  70
32
  10
1818966.11
  20
3215964.34
  30
3278
  0
VERTEX
  8
Unknown_Line_Type
  70
32
  10
1818963.92
  20
3215964.60
  30
3278
  0
VERTEX
  8
Unknown_Line_Type
  70
32
  10
1818961.96
  20
3215964.90
  30
3278
  0
VERTEX
  8
Unknown_Line_Type
  70
32
  10
1818958.88
  20
3215965.42
  30
3278
  0
VERTEX
  8
Unknown_Line_Type
  70
32
  10
1818958.23
  20
3215965.49
  30
3278
  0
VERTEX
  8
Unknown_Line_Type
  70
32
  10
1818958.00
  20
3215965.46
  30
3278
  0
SEQEND
  8
Unknown_Line_Type
  0
POLYLINE
  8
Unknown_Line_Type
  70
8
  66
1
 62
0
 39
0
  0
VERTEX
  8
Unknown_Line_Type
  70
32
  10
1819112.62
  20
3215920.74
  30
3280
  0
VERTEX
  8
Unknown_Line_Type
  70
32
  10
1819112.28
  20
3215920.74
  30
3280
  0
VERTEX
  8
Unknown_Line_Type
  70
32
  10
1819111.36
  20
3215920.86
  30
3280
  0
VERTEX
  8
Unknown_Line_Type
  70
32
  10
1819109.96
  20
3215921.10
  30
3280
  0
VERTEX
  8
Unknown_Line_Type
  70
32
  10
1819108.14
  20
3215921.50
  30
3280
  0
VERTEX
  8
Unknown_Line_Type
  70
32
  10
1819106.03
  20
3215922.03
  30
3280
  0
VERTEX
  8
Unknown_Line_Type
  70
32
  10
1819104.81
  20
3215922.38
  30
3280
  0
VERTEX
  8
Unknown_Line_Type
  70
32
  10
1819101.30
  20
3215923.48
  30
3280
  0
VERTEX
  8
Unknown_Line_Type
  70
32
  10
1819099.05
  20
3215924.22
  30
3280
  0
VERTEX
  8
Unknown_Line_Type
  70
32
  10
1819091.40
  20
3215926.87
  30
3280
  0
VERTEX
  8
Unknown_Line_Type
  70
32
  10
1819087.96
  20
3215928.00
  30
3280
  0
VERTEX
  8
Unknown_Line_Type
  70
32
  10
1819084.87
  20
3215928.92
  30
3280
  0
VERTEX
  8
Unknown_Line_Type
  70
32
  10
1819083.31
  20
3215929.33
  30
3280
  0
VERTEX
  8
Unknown_Line_Type
  70
32
  10
1819078.85
  20
3215930.39
  30
3280
  0
VERTEX
  8
Unknown_Line_Type
  70
32
  10
1819077.37
  20
3215930.77
  30
3280
  0
VERTEX
  8
Unknown_Line_Type
  70
32
  10
1819075.72
  20
3215931.26
  30
3280
  0
VERTEX
  8
Unknown_Line_Type
  70
32
  10
1819074.10
  20
3215931.82
  30
3280
  0
VERTEX
  8
Unknown_Line_Type
  70
32
  10
1819072.47
  20
3215932.47
  30
3280
  0
VERTEX
  8
Unknown_Line_Type
  70
32
  10
1819070.87
  20
3215933.19
  30
3280
  0
VERTEX
  8
Unknown_Line_Type
  70
32
  10
1819069.30
  20
3215933.97
  30
3280
  0
VERTEX
  8
Unknown_Line_Type
  70
32
  10
1819067.98
  20
3215934.68
  30
3280
  0
VERTEX
  8
Unknown_Line_Type
  70
32
  10
1819066.69
  20
3215935.46
  30
3280
  0
VERTEX
  8
Unknown_Line_Type
  70
32
  10
1819065.44
  20
3215936.28
  30
3280
  0
VERTEX
  8
Unknown_Line_Type
  70
32
  10
1819064.20
  20
3215937.14
  30
3280
  0
VERTEX
  8
Unknown_Line_Type
  70
32
  10
1819062.99
  20
3215938.04
  30
3280
  0
VERTEX
  8
Unknown_Line_Type
  70
32
  10
1819057.05
  20
3215942.73
  30
3280
  0
VERTEX
  8
Unknown_Line_Type
  70
32
  10
1819055.93
  20
3215943.56
  30
3280
  0
VERTEX
  8
Unknown_Line_Type
  70
32
  10
1819054.79
  20
3215944.35
  30
3280
  0
VERTEX
  8
Unknown_Line_Type
  70
32
  10
1819053.61
  20
3215945.07
  30
3280
  0
VERTEX
  8
Unknown_Line_Type
  70
32
  10
1819052.20
  20
3215945.79
  30
3280
  0
VERTEX
  8
Unknown_Line_Type
  70
32
  10
1819050.74
  20
3215946.42
  30
3280
  0
VERTEX
  8
Unknown_Line_Type
  70
32
  10
1819046.23
  20
3215948.11
  30
3280
  0
VERTEX
  8
Unknown_Line_Type
  70
32
  10
1819044.73
  20
3215948.70
  30
3280
  0
VERTEX
  8
Unknown_Line_Type
  70
32
  10
1819043.61
  20
3215949.19
  30
3280
  0
VERTEX
  8
Unknown_Line_Type
  70
32
  10
1819042.51
  20
3215949.73
  30
3280
  0
VERTEX
  8
Unknown_Line_Type
  70
32
  10
1819041.03
  20
3215950.56
  30
3280
  0
VERTEX
  8
Unknown_Line_Type
  70
32
  10
1819039.59
  20
3215951.47
  30
3280
  0
VERTEX
  8
Unknown_Line_Type
  70
32
  10
1819038.17
  20
3215952.45
  30
3280
  0
VERTEX
  8
Unknown_Line_Type
  70
32
  10
1819036.78
  20
3215953.46
  30
3280
  0
VERTEX
  8
Unknown_Line_Type
  70
32
  10
1819033.79
  20
3215955.72
  30
3280
  0
VERTEX
  8
Unknown_Line_Type
  70
32
  10
1819031.68
  20
3215957.43
  30
3280
  0
VERTEX
  8
Unknown_Line_Type
  70
32
  10
1819027.03
  20
3215961.40
  30
3280
  0
VERTEX
  8
Unknown_Line_Type
  70
32
  10
1819025.80
  20
3215962.38
  30
3280
  0
VERTEX
  8
Unknown_Line_Type
  70
32
  10
1819024.51
  20
3215963.28
  30
3280
  0
VERTEX
  8
Unknown_Line_Type
  70
32
  10
1819023.16
  20
3215964.09
  30
3280
  0
VERTEX
  8
Unknown_Line_Type
  70
32
  10
1819021.75
  20
3215964.81
  30
3280
  0
VERTEX
  8
Unknown_Line_Type
  70
32
  10
1819020.31
  20
3215965.46
  30
3280
  0
VERTEX
  8
Unknown_Line_Type
  70
32
  10
1819018.83
  20
3215966.05
  30
3280
  0
VERTEX
  8
Unknown_Line_Type
  70
32
  10
1819017.10
  20
3215966.69
  30
3280
  0
VERTEX
  8
Unknown_Line_Type
  70
32
  10
1819015.33
  20
3215967.25
  30
3280
  0
VERTEX
  8
Unknown_Line_Type
  70
32
  10
1819013.54
  20
3215967.71
  30
3280
  0
VERTEX
  8
Unknown_Line_Type
  70
32
  10
1819012.17
  20
3215967.98
  30
3280
  0
VERTEX
  8
Unknown_Line_Type
  70
32
  10
1819010.39
  20
3215968.23
  30
3280
  0
VERTEX
  8
Unknown_Line_Type
  70
32
  10
1819008.58
  20
3215968.41
  30
3280
  0
VERTEX
  8
Unknown_Line_Type
  70
32
  10
1819006.77
  20
3215968.52
  30
3280
  0
VERTEX
  8
Unknown_Line_Type
  70
32
  10
1819004.94
  20
3215968.60
  30
3280
  0
VERTEX
  8
Unknown_Line_Type
  70
32
  10
1818999.24
  20
3215968.71
  30
3280
  0
VERTEX
  8
Unknown_Line_Type
  70
32
  10
1818997.31
  20
3215968.78
  30
3280
  0
VERTEX
  8
Unknown_Line_Type
  70
32
  10
1818995.39
  20
3215968.93
  30
3280
  0
VERTEX
  8
Unknown_Line_Type
  70
32
  10
1818993.84
  20
3215969.11
  30
3280
  0
VERTEX
  8
Unknown_Line_Type
  70
32
  10
1818988.63
  20
3215969.89
  30
3280
  0
VERTEX
  8
Unknown_Line_Type
  70
32
  10
1818985.39
  20
3215970.41
  30
3280
  0
VERTEX
  8
Unknown_Line_Type
  70
32
  10
1818981.88
  20
3215971.09
  30
3280
  0
VERTEX
  8
Unknown_Line_Type
  70
32
  10
1818976.14
  20
3215972.34
  30
3280
  0
VERTEX
  8
Unknown_Line_Type
  70
32
  10
1818973.89
  20
3215972.73
  30
3280
  0
VERTEX
  8
Unknown_Line_Type
  70
32
  10
1818971.79
  20
3215973.01
  30
3280
  0
VERTEX
  8
Unknown_Line_Type
  70
32
  10
1818969.62
  20
3215973.23
  30
3280
  0
VERTEX
  8
Unknown_Line_Type
  70
32
  10
1818967.44
  20
3215973.38
  30
3280
  0
VERTEX
  8
Unknown_Line_Type
  70
32
  10
1818965.33
  20
3215973.45
  30
3280
  0
VERTEX
  8
Unknown_Line_Type
  70
32
  10
1818963.44
  20
3215973.45
  30
3280
  0
VERTEX
  8
Unknown_Line_Type
  70
32
  10
1818961.75
  20
3215973.36
  30
3280
  0
VERTEX
  8
Unknown_Line_Type
  70
32
  10
1818960.21
  20
3215973.21
  30
3280
  0
VERTEX
  8
Unknown_Line_Type
  70
32
  10
1818959.03
  20
3215973.02
  30
3280
  0
VERTEX
  8
Unknown_Line_Type
  70
32
  10
1818958.27
  20
3215972.85
  30
3280
  0
VERTEX
  8
Unknown_Line_Type
  70
32
  10
1818958.00
  20
3215972.74
  30
3280
  0
SEQEND
  8
Unknown_Line_Type
  0
POLYLINE
  8
Unknown_Line_Type
  70
8
  66
1
 62
0
 39
0
  0
VERTEX
  8
Unknown_Line_Type
  70
32
  10
1818958.00
  20
3215989.70
  30
3282
  0
VERTEX
  8
Unknown_Line_Type
  70
32
  10
1818961.97
  20
3215986.45
  30
3282
  0
VERTEX
  8
Unknown_Line_Type
  70
32
  10
1818963.71
  20
3215985.13
  30
3282
  0
VERTEX
  8
Unknown_Line_Type
  70
32
  10
1818965.66
  20
3215983.76
  30
3282
  0
VERTEX
  8
Unknown_Line_Type
  70
32
  10
1818967.74
  20
3215982.44
  30
3282
  0
VERTEX
  8
Unknown_Line_Type
  70
32
  10
1818969.86
  20
3215981.23
  30
3282
  0
VERTEX
  8
Unknown_Line_Type
  70
32
  10
1818971.93
  20
3215980.19
  30
3282
  0
VERTEX
  8
Unknown_Line_Type
  70
32
  10
1818973.88
  20
3215979.39
  30
3282
  0
VERTEX
  8
Unknown_Line_Type
  70
32
  10
1818975.55
  20
3215978.87
  30
3282
  0
VERTEX
  8
Unknown_Line_Type
  70
32
  10
1818977.23
  20
3215978.44
  30
3282
  0
VERTEX
  8
Unknown_Line_Type
  70
32
  10
1818980.64
  20
3215977.73
  30
3282
  0
VERTEX
  8
Unknown_Line_Type
  70
32
  10
1818983.92
  20
3215977.18
  30
3282
  0
VERTEX
  8
Unknown_Line_Type
  70
32
  10
1818985.78
  20
3215976.94
  30
3282
  0
VERTEX
  8
Unknown_Line_Type
  70
32
  10
1818987.65
  20
3215976.77
  30
3282
  0
VERTEX
  8
Unknown_Line_Type
  70
32
  10
1818989.52
  20
3215976.65
  30
3282
  0
VERTEX
  8
Unknown_Line_Type
  70
32
  10
1818992.27
  20
3215976.58
  30
3282
  0
VERTEX
  8
Unknown_Line_Type
  70
32
  10
1818994.14
  20
3215976.59
  30
3282
  0
VERTEX
  8
Unknown_Line_Type
  70
32
  10
1819001.61
  20
3215976.83
  30
3282
  0
VERTEX
  8
Unknown_Line_Type
  70
32
  10
1819005.42
  20
3215976.90
  30
3282
  0
VERTEX
  8
Unknown_Line_Type
  70
32
  10
1819009.30
  20
3215976.84
  30
3282
  0
VERTEX
  8
Unknown_Line_Type
  70
32
  10
1819011.23
  20
3215976.74
  30
3282
  0
VERTEX
  8
Unknown_Line_Type
  70
32
  10
1819013.15
  20
3215976.58
  30
3282
  0
VERTEX
  8
Unknown_Line_Type
  70
32
  10
1819015.04
  20
3215976.36
  30
3282
  0
VERTEX
  8
Unknown_Line_Type
  70
32
  10
1819016.91
  20
3215976.07
  30
3282
  0
VERTEX
  8
Unknown_Line_Type
  70
32
  10
1819018.77
  20
3215975.72
  30
3282
  0
VERTEX
  8
Unknown_Line_Type
  70
32
  10
1819020.60
  20
3215975.30
  30
3282
  0
VERTEX
  8
Unknown_Line_Type
  70
32
  10
1819022.40
  20
3215974.80
  30
3282
  0
VERTEX
  8
Unknown_Line_Type
  70
32
  10
1819023.89
  20
3215974.32
  30
3282
  0
VERTEX
  8
Unknown_Line_Type
  70
32
  10
1819025.34
  20
3215973.77
  30
3282
  0
VERTEX
  8
Unknown_Line_Type
  70
32
  10
1819026.75
  20
3215973.13
  30
3282
  0
VERTEX
  8
Unknown_Line_Type
  70
32
  10
1819028.11
  20
3215972.40
  30
3282
  0
VERTEX
  8
Unknown_Line_Type
  70
32
  10
1819029.43
  20
3215971.54
  30
3282
  0
VERTEX
  8
Unknown_Line_Type
  70
32
  10
1819030.71
  20
3215970.61
  30
3282
  0
VERTEX
  8
Unknown_Line_Type
  70
32
  10
1819034.74
  20
3215967.47
  30
3282
  0
VERTEX
  8
Unknown_Line_Type
  70
32
  10
1819039.31
  20
3215963.99
  30
3282
  0
VERTEX
  8
Unknown_Line_Type
  70
32
  10
1819041.78
  20
3215962.00
  30
3282
  0
VERTEX
  8
Unknown_Line_Type
  70
32
  10
1819042.98
  20
3215960.99
  30
3282
  0
VERTEX
  8
Unknown_Line_Type
  70
32
  10
1819045.27
  20
3215958.95
  30
3282
  0
VERTEX
  8
Unknown_Line_Type
  70
32
  10
1819048.53
  20
3215955.92
  30
3282
  0
VERTEX
  8
Unknown_Line_Type
  70
32
  10
1819049.88
  20
3215954.76
  30
3282
  0
VERTEX
  8
Unknown_Line_Type
  70
32
  10
1819051.26
  20
3215953.67
  30
3282
  0
VERTEX
  8
Unknown_Line_Type
  70
32
  10
1819052.69
  20
3215952.65
  30
3282
  0
VERTEX
  8
Unknown_Line_Type
  70
32
  10
1819054.07
  20
3215951.77
  30
3282
  0
VERTEX
  8
Unknown_Line_Type
  70
32
  10
1819056.89
  20
3215950.06
  30
3282
  0
VERTEX
  8
Unknown_Line_Type
  70
32
  10
1819059.57
  20
3215948.25
  30
3282
  0
VERTEX
  8
Unknown_Line_Type
  70
32
  10
1819062.57
  20
3215946.05
  30
3282
  0
VERTEX
  8
Unknown_Line_Type
  70
32
  10
1819067.96
  20
3215941.92
  30
3282
  0
VERTEX
  8
Unknown_Line_Type
  70
32
  10
1819069.18
  20
3215941.02
  30
3282
  0
VERTEX
  8
Unknown_Line_Type
  70
32
  10
1819070.54
  20
3215940.08
  30
3282
  0
VERTEX
  8
Unknown_Line_Type
  70
32
  10
1819071.93
  20
3215939.19
  30
3282
  0
VERTEX
  8
Unknown_Line_Type
  70
32
  10
1819073.50
  20
3215938.22
  30
3282
  0
VERTEX
  8
Unknown_Line_Type
  70
32
  10
1819075.10
  20
3215937.31
  30
3282
  0
VERTEX
  8
Unknown_Line_Type
  70
32
  10
1819076.56
  20
3215936.55
  30
3282
  0
VERTEX
  8
Unknown_Line_Type
  70
32
  10
1819078.05
  20
3215935.87
  30
3282
  0
VERTEX
  8
Unknown_Line_Type
  70
32
  10
1819079.44
  20
3215935.34
  30
3282
  0
VERTEX
  8
Unknown_Line_Type
  70
32
  10
1819080.86
  20
3215934.88
  30
3282
  0
VERTEX
  8
Unknown_Line_Type
  70
32
  10
1819092.21
  20
3215931.56
  30
3282
  0
VERTEX
  8
Unknown_Line_Type
  70
32
  10
1819095.28
  20
3215930.61
  30
3282
  0
VERTEX
  8
Unknown_Line_Type
  70
32
  10
1819104.69
  20
3215927.57
  30
3282
  0
VERTEX
  8
Unknown_Line_Type
  70
32
  10
1819105.82
  20
3215927.23
  30
3282
  0
VERTEX
  8
Unknown_Line_Type
  70
32
  10
1819106.52
  20
3215927.05
  30
3282
  0
VERTEX
  8
Unknown_Line_Type
  70
32
  10
1819106.74
  20
3215927.03
  30
3282
  0
SEQEND
  8
Unknown_Line_Type
  0
POLYLINE
  8
Unknown_Line_Type
  70
8
  66
1
 62
0
 39
0
  0
VERTEX
  8
Unknown_Line_Type
  70
32
  10
1819097.83
  20
3215936.56
  30
3284
  0
VERTEX
  8
Unknown_Line_Type
  70
32
  10
1819095.06
  20
3215936.95
  30
3284
  0
VERTEX
  8
Unknown_Line_Type
  70
32
  10
1819093.21
  20
3215937.28
  30
3284
  0
VERTEX
  8
Unknown_Line_Type
  70
32
  10
1819091.08
  20
3215937.73
  30
3284
  0
VERTEX
  8
Unknown_Line_Type
  70
32
  10
1819088.79
  20
3215938.31
  30
3284
  0
VERTEX
  8
Unknown_Line_Type
  70
32
  10
1819086.87
  20
3215938.90
  30
3284
  0
VERTEX
  8
Unknown_Line_Type
  70
32
  10
1819085.08
  20
3215939.54
  30
3284
  0
VERTEX
  8
Unknown_Line_Type
  70
32
  10
1819083.04
  20
3215940.42
  30
3284
  0
VERTEX
  8
Unknown_Line_Type
  70
32
  10
1819081.18
  20
3215941.38
  30
3284
  0
VERTEX
  8
Unknown_Line_Type
  70
32
  10
1819079.55
  20
3215942.36
  30
3284
  0
VERTEX
  8
Unknown_Line_Type
  70
32
  10
1819078.10
  20
3215943.33
  30
3284
  0
VERTEX
  8
Unknown_Line_Type
  70
32
  10
1819071.99
  20
3215947.61
  30
3284
  0
VERTEX
  8
Unknown_Line_Type
  70
32
  10
1819067.55
  20
3215950.83
  30
3284
  0
VERTEX
  8
Unknown_Line_Type
  70
32
  10
1819061.75
  20
3215955.21
  30
3284
  0
VERTEX
  8
Unknown_Line_Type
  70
32
  10
1819060.46
  20
3215956.24
  30
3284
  0
VERTEX
  8
Unknown_Line_Type
  70
32
  10
1819059.20
  20
3215957.32
  30
3284
  0
VERTEX
  8
Unknown_Line_Type
  70
32
  10
1819058.09
  20
3215958.33
  30
3284
  0
VERTEX
  8
Unknown_Line_Type
  70
32
  10
1819057.02
  20
3215959.37
  30
3284
  0
VERTEX
  8
Unknown_Line_Type
  70
32
  10
1819055.98
  20
3215960.46
  30
3284
  0
VERTEX
  8
Unknown_Line_Type
  70
32
  10
1819054.67
  20
3215961.92
  30
3284
  0
VERTEX
  8
Unknown_Line_Type
  70
32
  10
1819049.84
  20
3215967.74
  30
3284
  0
VERTEX
  8
Unknown_Line_Type
  70
32
  10
1819047.66
  20
3215970.25
  30
3284
  0
VERTEX
  8
Unknown_Line_Type
  70
32
  10
1819045.75
  20
3215972.31
  30
3284
  0
VERTEX
  8
Unknown_Line_Type
  70
32
  10
1819044.67
  20
3215973.44
  30
3284
  0
VERTEX
  8
Unknown_Line_Type
  70
32
  10
1819043.80
  20
3215974.29
  30
3284
  0
VERTEX
  8
Unknown_Line_Type
  70
32
  10
1819042.90
  20
3215975.11
  30
3284
  0
VERTEX
  8
Unknown_Line_Type
  70
32
  10
1819041.61
  20
3215976.18
  30
3284
  0
VERTEX
  8
Unknown_Line_Type
  70
32
  10
1819040.26
  20
3215977.18
  30
3284
  0
VERTEX
  8
Unknown_Line_Type
  70
32
  10
1819038.85
  20
3215978.11
  30
3284
  0
VERTEX
  8
Unknown_Line_Type
  70
32
  10
1819037.40
  20
3215978.97
  30
3284
  0
VERTEX
  8
Unknown_Line_Type
  70
32
  10
1819035.73
  20
3215979.82
  30
3284
  0
VERTEX
  8
Unknown_Line_Type
  70
32
  10
1819034.02
  20
3215980.59
  30
3284
  0
VERTEX
  8
Unknown_Line_Type
  70
32
  10
1819032.26
  20
3215981.29
  30
3284
  0
VERTEX
  8
Unknown_Line_Type
  70
32
  10
1819030.48
  20
3215981.93
  30
3284
  0
VERTEX
  8
Unknown_Line_Type
  70
32
  10
1819028.67
  20
3215982.49
  30
3284
  0
VERTEX
  8
Unknown_Line_Type
  70
32
  10
1819026.78
  20
3215983.00
  30
3284
  0
VERTEX
  8
Unknown_Line_Type
  70
32
  10
1819024.87
  20
3215983.45
  30
3284
  0
VERTEX
  8
Unknown_Line_Type
  70
32
  10
1819022.95
  20
3215983.86
  30
3284
  0
VERTEX
  8
Unknown_Line_Type
  70
32
  10
1819019.08
  20
3215984.56
  30
3284
  0
VERTEX
  8
Unknown_Line_Type
  70
32
  10
1819015.98
  20
3215985.04
  30
3284
  0
VERTEX
  8
Unknown_Line_Type
  70
32
  10
1819012.87
  20
3215985.46
  30
3284
  0
VERTEX
  8
Unknown_Line_Type
  70
32
  10
1819010.79
  20
3215985.71
  30
3284
  0
VERTEX
  8
Unknown_Line_Type
  70
32
  10
1819008.86
  20
3215985.88
  30
3284
  0
VERTEX
  8
Unknown_Line_Type
  70
32
  10
1819003.04
  20
3215986.27
  30
3284
  0
VERTEX
  8
Unknown_Line_Type
  70
32
  10
1819001.12
  20
3215986.46
  30
3284
  0
VERTEX
  8
Unknown_Line_Type
  70
32
  10
1818999.47
  20
3215986.68
  30
3284
  0
VERTEX
  8
Unknown_Line_Type
  70
32
  10
1818994.57
  20
3215987.45
  30
3284
  0
VERTEX
  8
Unknown_Line_Type
  70
32
  10
1818993.01
  20
3215987.64
  30
3284
  0
VERTEX
  8
Unknown_Line_Type
  70
32
  10
1818991.47
  20
3215987.77
  30
3284
  0
VERTEX
  8
Unknown_Line_Type
  70
32
  10
1818989.94
  20
3215987.84
  30
3284
  0
VERTEX
  8
Unknown_Line_Type
  70
32
  10
1818988.44
  20
3215987.83
  30
3284
  0
VERTEX
  8
Unknown_Line_Type
  70
32
  10
1818986.98
  20
3215987.76
  30
3284
  0
VERTEX
  8
Unknown_Line_Type
  70
32
  10
1818983.30
  20
3215987.35
  30
3284
  0
VERTEX
  8
Unknown_Line_Type
  70
32
  10
1818982.39
  20
3215987.31
  30
3284
  0
VERTEX
  8
Unknown_Line_Type
  70
32
  10
1818980.81
  20
3215987.45
  30
3284
  0
VERTEX
  8
Unknown_Line_Type
  70
32
  10
1818979.21
  20
3215987.81
  30
3284
  0
VERTEX
  8
Unknown_Line_Type
  70
32
  10
1818977.59
  20
3215988.33
  30
3284
  0
VERTEX
  8
Unknown_Line_Type
  70
32
  10
1818975.97
  20
3215988.99
  30
3284
  0
VERTEX
  8
Unknown_Line_Type
  70
32
  10
1818974.25
  20
3215989.79
  30
3284
  0
VERTEX
  8
Unknown_Line_Type
  70
32
  10
1818965.26
  20
3215994.41
  30
3284
  0
VERTEX
  8
Unknown_Line_Type
  70
32
  10
1818963.31
  20
3215995.37
  30
3284
  0
VERTEX
  8
Unknown_Line_Type
  70
32
  10
1818960.39
  20
3215996.75
  30
3284
  0
VERTEX
  8
Unknown_Line_Type
  70
32
  10
1818959.41
  20
3215997.17
  30
3284
  0
VERTEX
  8
Unknown_Line_Type
  70
32
  10
1818958.66
  20
3215997.44
  30
3284
  0
VERTEX
  8
Unknown_Line_Type
  70
32
  10
1818958.18
  20
3215997.55
  30
3284
  0
VERTEX
  8
Unknown_Line_Type
  70
32
  10
1818958.00
  20
3215997.51
  30
3284
  0
SEQEND
  8
Unknown_Line_Type
  0
POLYLINE
  8
Unknown_Line_Type
  70
8
  66
1
 62
0
 39
0
  0
VERTEX
  8
Unknown_Line_Type
  70
32
  10
1819083.02
  20
3215952.41
  30
3286
  0
VERTEX
  8
Unknown_Line_Type
  70
32
  10
1819081.32
  20
3215953.14
  30
3286
  0
VERTEX
  8
Unknown_Line_Type
  70
32
  10
1819079.72
  20
3215953.92
  30
3286
  0
VERTEX
  8
Unknown_Line_Type
  70
32
  10
1819078.88
  20
3215954.39
  30
3286
  0
VERTEX
  8
Unknown_Line_Type
  70
32
  10
1819077.57
  20
3215955.23
  30
3286
  0
VERTEX
  8
Unknown_Line_Type
  70
32
  10
1819077.00
  20
3215955.64
  30
3286
  0
VERTEX
  8
Unknown_Line_Type
  70
32
  10
1819076.06
  20
3215956.44
  30
3286
  0
VERTEX
  8
Unknown_Line_Type
  70
32
  10
1819075.14
  20
3215957.31
  30
3286
  0
VERTEX
  8
Unknown_Line_Type
  70
32
  10
1819073.74
  20
3215958.71
  30
3286
  0
VERTEX
  8
Unknown_Line_Type
  70
32
  10
1819072.78
  20
3215959.61
  30
3286
  0
VERTEX
  8
Unknown_Line_Type
  70
32
  10
1819071.74
  20
3215960.43
  30
3286
  0
VERTEX
  8
Unknown_Line_Type
  70
32
  10
1819069.10
  20
3215962.40
  30
3286
  0
VERTEX
  8
Unknown_Line_Type
  70
32
  10
1819068.14
  20
3215963.28
  30
3286
  0
VERTEX
  8
Unknown_Line_Type
  70
32
  10
1819067.69
  20
3215963.77
  30
3286
  0
VERTEX
  8
Unknown_Line_Type
  70
32
  10
1819066.88
  20
3215964.82
  30
3286
  0
VERTEX
  8
Unknown_Line_Type
  70
32
  10
1819064.65
  20
3215968.20
  30
3286
  0
VERTEX
  8
Unknown_Line_Type
  70
32
  10
1819063.87
  20
3215969.32
  30
3286
  0
VERTEX
  8
Unknown_Line_Type
  70
32
  10
1819061.82
  20
3215972.12
  30
3286
  0
VERTEX
  8
Unknown_Line_Type
  70
32
  10
1819060.91
  20
3215973.54
  30
3286
  0
VERTEX
  8
Unknown_Line_Type
  70
32
  10
1819060.06
  20
3215975.10
  30
3286
  0
VERTEX
  8
Unknown_Line_Type
  70
32
  10
1819059.72
  20
3215975.86
  30
3286
  0
VERTEX
  8
Unknown_Line_Type
  70
32
  10
1819059.27
  20
3215977.13
  30
3286
  0
VERTEX
  8
Unknown_Line_Type
  70
32
  10
1819059.15
  20
3215977.60
  30
3286
  0
VERTEX
  8
Unknown_Line_Type
  70
32
  10
1819059.08
  20
3215978.03
  30
3286
  0
SEQEND
  8
Unknown_Line_Type
  0
POLYLINE
  8
Unknown_Line_Type
  70
8
  66
1
 62
0
 39
0
  0
VERTEX
  8
Unknown_Line_Type
  70
32
  10
1819055.67
  20
3215981.67
  30
3286
  0
VERTEX
  8
Unknown_Line_Type
  70
32
  10
1819054.74
  20
3215982.04
  30
3286
  0
VERTEX
  8
Unknown_Line_Type
  70
32
  10
1819054.49
  20
3215982.21
  30
3286
  0
VERTEX
  8
Unknown_Line_Type
  70
32
  10
1819054.28
  20
3215982.42
  30
3286
  0
VERTEX
  8
Unknown_Line_Type
  70
32
  10
1819052.86
  20
3215984.12
  30
3286
  0
VERTEX
  8
Unknown_Line_Type
  70
32
  10
1819052.65
  20
3215984.48
  30
3286
  0
VERTEX
  8
Unknown_Line_Type
  70
32
  10
1819052.28
  20
3215985.30
  30
3286
  0
SEQEND
  8
Unknown_Line_Type
  0
POLYLINE
  8
Unknown_Line_Type
  70
8
  66
1
 62
0
 39
0
  0
VERTEX
  8
Unknown_Line_Type
  70
32
  10
1819051.10
  20
3215986.56
  30
3286
  0
VERTEX
  8
Unknown_Line_Type
  70
32
  10
1819050.88
  20
3215986.76
  30
3286
  0
VERTEX
  8
Unknown_Line_Type
  70
32
  10
1819050.21
  20
3215987.16
  30
3286
  0
VERTEX
  8
Unknown_Line_Type
  70
32
  10
1819049.15
  20
3215987.68
  30
3286
  0
VERTEX
  8
Unknown_Line_Type
  70
32
  10
1819047.76
  20
3215988.28
  30
3286
  0
VERTEX
  8
Unknown_Line_Type
  70
32
  10
1819046.34
  20
3215988.80
  30
3286
  0
VERTEX
  8
Unknown_Line_Type
  70
32
  10
1819044.31
  20
3215989.49
  30
3286
  0
VERTEX
  8
Unknown_Line_Type
  70
32
  10
1819042.09
  20
3215990.20
  30
3286
  0
VERTEX
  8
Unknown_Line_Type
  70
32
  10
1819039.78
  20
3215990.89
  30
3286
  0
VERTEX
  8
Unknown_Line_Type
  70
32
  10
1819037.48
  20
3215991.53
  30
3286
  0
VERTEX
  8
Unknown_Line_Type
  70
32
  10
1819035.27
  20
3215992.08
  30
3286
  0
VERTEX
  8
Unknown_Line_Type
  70
32
  10
1819033.19
  20
3215992.51
  30
3286
  0
VERTEX
  8
Unknown_Line_Type
  70
32
  10
1819023.59
  20
3215994.06
  30
3286
  0
VERTEX
  8
Unknown_Line_Type
  70
32
  10
1819021.85
  20
3215994.39
  30
3286
  0
VERTEX
  8
Unknown_Line_Type
  70
32
  10
1819020.13
  20
3215994.77
  30
3286
  0
VERTEX
  8
Unknown_Line_Type
  70
32
  10
1819018.42
  20
3215995.20
  30
3286
  0
VERTEX
  8
Unknown_Line_Type
  70
32
  10
1819016.74
  20
3215995.70
  30
3286
  0
VERTEX
  8
Unknown_Line_Type
  70
32
  10
1819015.73
  20
3215996.05
  30
3286
  0
VERTEX
  8
Unknown_Line_Type
  70
32
  10
1819014.74
  20
3215996.42
  30
3286
  0
VERTEX
  8
Unknown_Line_Type
  70
32
  10
1819010.82
  20
3215998.01
  30
3286
  0
VERTEX
  8
Unknown_Line_Type
  70
32
  10
1819009.34
  20
3215998.56
  30
3286
  0
VERTEX
  8
Unknown_Line_Type
  70
32
  10
1819007.84
  20
3215999.05
  30
3286
  0
VERTEX
  8
Unknown_Line_Type
  70
32
  10
1819006.32
  20
3215999.47
  30
3286
  0
VERTEX
  8
Unknown_Line_Type
  70
32
  10
1819004.78
  20
3215999.81
  30
3286
  0
VERTEX
  8
Unknown_Line_Type
  70
32
  10
1819003.31
  20
3216000.04
  30
3286
  0
VERTEX
  8
Unknown_Line_Type
  70
32
  10
1819001.83
  20
3216000.19
  30
3286
  0
VERTEX
  8
Unknown_Line_Type
  70
32
  10
1819000.34
  20
3216000.27
  30
3286
  0
VERTEX
  8
Unknown_Line_Type
  70
32
  10
1818998.84
  20
3216000.27
  30
3286
  0
VERTEX
  8
Unknown_Line_Type
  70
32
  10
1818997.27
  20
3216000.20
  30
3286
  0
VERTEX
  8
Unknown_Line_Type
  70
32
  10
1818995.70
  20
3216000.07
  30
3286
  0
VERTEX
  8
Unknown_Line_Type
  70
32
  10
1818994.13
  20
3215999.90
  30
3286
  0
VERTEX
  8
Unknown_Line_Type
  70
32
  10
1818986.35
  20
3215998.87
  30
3286
  0
VERTEX
  8
Unknown_Line_Type
  70
32
  10
1818983.37
  20
3215998.53
  30
3286
  0
VERTEX
  8
Unknown_Line_Type
  70
32
  10
1818982.46
  20
3215998.45
  30
3286
  0
VERTEX
  8
Unknown_Line_Type
  70
32
  10
1818981.55
  20
3215998.41
  30
3286
  0
VERTEX
  8
Unknown_Line_Type
  70
32
  10
1818980.21
  20
3215998.47
  30
3286
  0
VERTEX
  8
Unknown_Line_Type
  70
32
  10
1818978.86
  20
3215998.66
  30
3286
  0
VERTEX
  8
Unknown_Line_Type
  70
32
  10
1818977.52
  20
3215998.96
  30
3286
  0
VERTEX
  8
Unknown_Line_Type
  70
32
  10
1818976.04
  20
3215999.40
  30
3286
  0
VERTEX
  8
Unknown_Line_Type
  70
32
  10
1818970.74
  20
3216001.24
  30
3286
  0
VERTEX
  8
Unknown_Line_Type
  70
32
  10
1818968.91
  20
3216001.83
  30
3286
  0
VERTEX
  8
Unknown_Line_Type
  70
32
  10
1818967.07
  20
3216002.39
  30
3286
  0
VERTEX
  8
Unknown_Line_Type
  70
32
  10
1818965.07
  20
3216002.94
  30
3286
  0
VERTEX
  8
Unknown_Line_Type
  70
32
  10
1818963.19
  20
3216003.41
  30
3286
  0
VERTEX
  8
Unknown_Line_Type
  70
32
  10
1818961.49
  20
3216003.79
  30
3286
  0
VERTEX
  8
Unknown_Line_Type
  70
32
  10
1818958.89
  20
3216004.28
  30
3286
  0
VERTEX
  8
Unknown_Line_Type
  70
32
  10
1818958.18
  20
3216004.38
  30
3286
  0
VERTEX
  8
Unknown_Line_Type
  70
32
  10
1818958.00
  20
3216004.37
  30
3286
  0
SEQEND
  8
Unknown_Line_Type
  0
POLYLINE
  8
Unknown_Line_Type
  70
8
  66
1
 62
0
 39
0
  0
VERTEX
  8
Unknown_Line_Type
  70
32
  10
1819034.24
  20
3216004.60
  30
3288
  0
VERTEX
  8
Unknown_Line_Type
  70
32
  10
1819031.26
  20
3216005.24
  30
3288
  0
VERTEX
  8
Unknown_Line_Type
  70
32
  10
1819024.96
  20
3216006.46
  30
3288
  0
VERTEX
  8
Unknown_Line_Type
  70
32
  10
1819021.75
  20
3216007.20
  30
3288
  0
VERTEX
  8
Unknown_Line_Type
  70
32
  10
1819020.30
  20
3216007.59
  30
3288
  0
VERTEX
  8
Unknown_Line_Type
  70
32
  10
1819019.02
  20
3216007.98
  30
3288
  0
VERTEX
  8
Unknown_Line_Type
  70
32
  10
1819016.34
  20
3216008.92
  30
3288
  0
VERTEX
  8
Unknown_Line_Type
  70
32
  10
1819014.99
  20
3216009.34
  30
3288
  0
VERTEX
  8
Unknown_Line_Type
  70
32
  10
1819013.88
  20
3216009.61
  30
3288
  0
VERTEX
  8
Unknown_Line_Type
  70
32
  10
1819012.74
  20
3216009.82
  30
3288
  0
VERTEX
  8
Unknown_Line_Type
  70
32
  10
1819011.59
  20
3216009.99
  30
3288
  0
VERTEX
  8
Unknown_Line_Type
  70
32
  10
1819010.13
  20
3216010.12
  30
3288
  0
VERTEX
  8
Unknown_Line_Type
  70
32
  10
1819008.66
  20
3216010.19
  30
3288
  0
VERTEX
  8
Unknown_Line_Type
  70
32
  10
1819007.18
  20
3216010.19
  30
3288
  0
VERTEX
  8
Unknown_Line_Type
  70
32
  10
1819005.70
  20
3216010.11
  30
3288
  0
VERTEX
  8
Unknown_Line_Type
  70
32
  10
1819004.27
  20
3216009.97
  30
3288
  0
VERTEX
  8
Unknown_Line_Type
  70
32
  10
1819002.84
  20
3216009.78
  30
3288
  0
VERTEX
  8
Unknown_Line_Type
  70
32
  10
1819001.41
  20
3216009.54
  30
3288
  0
VERTEX
  8
Unknown_Line_Type
  70
32
  10
1818998.92
  20
3216009.05
  30
3288
  0
VERTEX
  8
Unknown_Line_Type
  70
32
  10
1818990.93
  20
3216007.30
  30
3288
  0
VERTEX
  8
Unknown_Line_Type
  70
32
  10
1818986.76
  20
3216006.45
  30
3288
  0
VERTEX
  8
Unknown_Line_Type
  70
32
  10
1818983.99
  20
3216005.96
  30
3288
  0
VERTEX
  8
Unknown_Line_Type
  70
32
  10
1818982.62
  20
3216005.77
  30
3288
  0
VERTEX
  8
Unknown_Line_Type
  70
32
  10
1818981.24
  20
3216005.63
  30
3288
  0
VERTEX
  8
Unknown_Line_Type
  70
32
  10
1818980.46
  20
3216005.60
  30
3288
  0
VERTEX
  8
Unknown_Line_Type
  70
32
  10
1818979.41
  20
3216005.61
  30
3288
  0
VERTEX
  8
Unknown_Line_Type
  70
32
  10
1818978.36
  20
3216005.67
  30
3288
  0
VERTEX
  8
Unknown_Line_Type
  70
32
  10
1818977.32
  20
3216005.78
  30
3288
  0
VERTEX
  8
Unknown_Line_Type
  70
32
  10
1818976.00
  20
3216005.99
  30
3288
  0
VERTEX
  8
Unknown_Line_Type
  70
32
  10
1818973.37
  20
3216006.52
  30
3288
  0
VERTEX
  8
Unknown_Line_Type
  70
32
  10
1818966.95
  20
3216007.93
  30
3288
  0
VERTEX
  8
Unknown_Line_Type
  70
32
  10
1818963.25
  20
3216008.69
  30
3288
  0
VERTEX
  8
Unknown_Line_Type
  70
32
  10
1818961.59
  20
3216008.96
  30
3288
  0
VERTEX
  8
Unknown_Line_Type
  70
32
  10
1818960.16
  20
3216009.14
  30
3288
  0
VERTEX
  8
Unknown_Line_Type
  70
32
  10
1818959.03
  20
3216009.25
  30
3288
  0
VERTEX
  8
Unknown_Line_Type
  70
32
  10
1818958.28
  20
3216009.29
  30
3288
  0
VERTEX
  8
Unknown_Line_Type
  70
32
  10
1818958.00
  20
3216009.27
  30
3288
  0
SEQEND
  8
Unknown_Line_Type
  0
POLYLINE
  8
Unknown_Line_Type
  70
8
  66
1
 62
0
 39
0
  0
VERTEX
  8
Unknown_Line_Type
  70
32
  10
1819023.79
  20
3216015.78
  30
3290
  0
VERTEX
  8
Unknown_Line_Type
  70
32
  10
1819022.48
  20
3216015.82
  30
3290
  0
VERTEX
  8
Unknown_Line_Type
  70
32
  10
1819017.98
  20
3216015.77
  30
3290
  0
VERTEX
  8
Unknown_Line_Type
  70
32
  10
1819016.19
  20
3216015.79
  30
3290
  0
VERTEX
  8
Unknown_Line_Type
  70
32
  10
1819009.48
  20
3216016.01
  30
3290
  0
VERTEX
  8
Unknown_Line_Type
  70
32
  10
1819008.28
  20
3216016.02
  30
3290
  0
VERTEX
  8
Unknown_Line_Type
  70
32
  10
1819007.09
  20
3216015.97
  30
3290
  0
VERTEX
  8
Unknown_Line_Type
  70
32
  10
1819005.81
  20
3216015.86
  30
3290
  0
VERTEX
  8
Unknown_Line_Type
  70
32
  10
1819004.53
  20
3216015.69
  30
3290
  0
VERTEX
  8
Unknown_Line_Type
  70
32
  10
1819003.25
  20
3216015.48
  30
3290
  0
VERTEX
  8
Unknown_Line_Type
  70
32
  10
1819000.79
  20
3216014.99
  30
3290
  0
VERTEX
  8
Unknown_Line_Type
  70
32
  10
1818997.23
  20
3216014.15
  30
3290
  0
VERTEX
  8
Unknown_Line_Type
  70
32
  10
1818992.52
  20
3216012.90
  30
3290
  0
VERTEX
  8
Unknown_Line_Type
  70
32
  10
1818989.02
  20
3216011.93
  30
3290
  0
VERTEX
  8
Unknown_Line_Type
  70
32
  10
1818984.34
  20
3216010.58
  30
3290
  0
VERTEX
  8
Unknown_Line_Type
  70
32
  10
1818983.22
  20
3216010.29
  30
3290
  0
VERTEX
  8
Unknown_Line_Type
  70
32
  10
1818982.11
  20
3216010.05
  30
3290
  0
VERTEX
  8
Unknown_Line_Type
  70
32
  10
1818980.99
  20
3216009.86
  30
3290
  0
VERTEX
  8
Unknown_Line_Type
  70
32
  10
1818979.88
  20
3216009.77
  30
3290
  0
VERTEX
  8
Unknown_Line_Type
  70
32
  10
1818979.18
  20
3216009.77
  30
3290
  0
VERTEX
  8
Unknown_Line_Type
  70
32
  10
1818978.01
  20
3216009.88
  30
3290
  0
VERTEX
  8
Unknown_Line_Type
  70
32
  10
1818976.85
  20
3216010.09
  30
3290
  0
VERTEX
  8
Unknown_Line_Type
  70
32
  10
1818975.75
  20
3216010.37
  30
3290
  0
VERTEX
  8
Unknown_Line_Type
  70
32
  10
1818974.65
  20
3216010.69
  30
3290
  0
VERTEX
  8
Unknown_Line_Type
  70
32
  10
1818972.93
  20
3216011.28
  30
3290
  0
VERTEX
  8
Unknown_Line_Type
  70
32
  10
1818972.08
  20
3216011.62
  30
3290
  0
VERTEX
  8
Unknown_Line_Type
  70
32
  10
1818968.89
  20
3216013.06
  30
3290
  0
VERTEX
  8
Unknown_Line_Type
  70
32
  10
1818967.62
  20
3216013.56
  30
3290
  0
VERTEX
  8
Unknown_Line_Type
  70
32
  10
1818966.28
  20
3216014.01
  30
3290
  0
VERTEX
  8
Unknown_Line_Type
  70
32
  10
1818964.83
  20
3216014.40
  30
3290
  0
VERTEX
  8
Unknown_Line_Type
  70
32
  10
1818963.38
  20
3216014.70
  30
3290
  0
VERTEX
  8
Unknown_Line_Type
  70
32
  10
1818962.00
  20
3216014.94
  30
3290
  0
VERTEX
  8
Unknown_Line_Type
  70
32
  10
1818958.00
  20
3216015.46
  30
3290
  0
SEQEND
  8
Unknown_Line_Type
  0
POLYLINE
  8
Unknown_Line_Type
  70
8
  66
1
 62
0
 39
0
  0
VERTEX
  8
Unknown_Line_Type
  70
32
  10
1819020.09
  20
3216019.74
  30
3292
  0
VERTEX
  8
Unknown_Line_Type
  70
32
  10
1819019.15
  20
3216019.59
  30
3292
  0
VERTEX
  8
Unknown_Line_Type
  70
32
  10
1819016.86
  20
3216019.35
  30
3292
  0
VERTEX
  8
Unknown_Line_Type
  70
32
  10
1819015.39
  20
3216019.26
  30
3292
  0
VERTEX
  8
Unknown_Line_Type
  70
32
  10
1819014.02
  20
3216019.24
  30
3292
  0
VERTEX
  8
Unknown_Line_Type
  70
32
  10
1819012.61
  20
3216019.26
  30
3292
  0
VERTEX
  8
Unknown_Line_Type
  70
32
  10
1819011.20
  20
3216019.33
  30
3292
  0
VERTEX
  8
Unknown_Line_Type
  70
32
  10
1819009.90
  20
3216019.43
  30
3292
  0
VERTEX
  8
Unknown_Line_Type
  70
32
  10
1819006.56
  20
3216019.81
  30
3292
  0
VERTEX
  8
Unknown_Line_Type
  70
32
  10
1819004.84
  20
3216019.96
  30
3292
  0
VERTEX
  8
Unknown_Line_Type
  70
32
  10
1819002.96
  20
3216020.03
  30
3292
  0
VERTEX
  8
Unknown_Line_Type
  70
32
  10
1819001.95
  20
3216020.02
  30
3292
  0
VERTEX
  8
Unknown_Line_Type
  70
32
  10
1819000.93
  20
3216019.97
  30
3292
  0
VERTEX
  8
Unknown_Line_Type
  70
32
  10
1818999.71
  20
3216019.86
  30
3292
  0
VERTEX
  8
Unknown_Line_Type
  70
32
  10
1818998.49
  20
3216019.69
  30
3292
  0
VERTEX
  8
Unknown_Line_Type
  70
32
  10
1818993.61
  20
3216018.88
  30
3292
  0
VERTEX
  8
Unknown_Line_Type
  70
32
  10
1818990.31
  20
3216018.45
  30
3292
  0
VERTEX
  8
Unknown_Line_Type
  70
32
  10
1818985.42
  20
3216017.95
  30
3292
  0
VERTEX
  8
Unknown_Line_Type
  70
32
  10
1818984.27
  20
3216017.88
  30
3292
  0
VERTEX
  8
Unknown_Line_Type
  70
32
  10
1818983.13
  20
3216017.91
  30
3292
  0
VERTEX
  8
Unknown_Line_Type
  70
32
  10
1818982.33
  20
3216018.01
  30
3292
  0
VERTEX
  8
Unknown_Line_Type
  70
32
  10
1818980.71
  20
3216018.33
  30
3292
  0
VERTEX
  8
Unknown_Line_Type
  70
32
  10
1818975.59
  20
3216019.54
  30
3292
  0
VERTEX
  8
Unknown_Line_Type
  70
32
  10
1818973.49
  20
3216020.11
  30
3292
  0
VERTEX
  8
Unknown_Line_Type
  70
32
  10
1818967.81
  20
3216021.78
  30
3292
  0
VERTEX
  8
Unknown_Line_Type
  70
32
  10
1818963.57
  20
3216022.98
  30
3292
  0
VERTEX
  8
Unknown_Line_Type
  70
32
  10
1818960.86
  20
3216023.70
  30
3292
  0
VERTEX
  8
Unknown_Line_Type
  70
32
  10
1818958.00
  20
3216024.39
  30
3292
  0
SEQEND
  8
Unknown_Line_Type
  0
POLYLINE
  8
Unknown_Line_Type
  70
8
  66
1
 62
0
 39
0
  0
VERTEX
  8
Unknown_Line_Type
  70
32
  10
1819016.97
  20
3216023.07
  30
3294
  0
VERTEX
  8
Unknown_Line_Type
  70
32
  10
1819016.77
  20
3216023.00
  30
3294
  0
VERTEX
  8
Unknown_Line_Type
  70
32
  10
1819016.21
  20
3216022.90
  30
3294
  0
VERTEX
  8
Unknown_Line_Type
  70
32
  10
1819015.36
  20
3216022.79
  30
3294
  0
VERTEX
  8
Unknown_Line_Type
  70
32
  10
1819014.27
  20
3216022.72
  30
3294
  0
VERTEX
  8
Unknown_Line_Type
  70
32
  10
1819013.01
  20
3216022.71
  30
3294
  0
VERTEX
  8
Unknown_Line_Type
  70
32
  10
1819011.87
  20
3216022.79
  30
3294
  0
VERTEX
  8
Unknown_Line_Type
  70
32
  10
1819010.27
  20
3216023.02
  30
3294
  0
VERTEX
  8
Unknown_Line_Type
  70
32
  10
1819008.68
  20
3216023.39
  30
3294
  0
VERTEX
  8
Unknown_Line_Type
  70
32
  10
1819007.63
  20
3216023.73
  30
3294
  0
VERTEX
  8
Unknown_Line_Type
  70
32
  10
1819003.74
  20
3216025.25
  30
3294
  0
VERTEX
  8
Unknown_Line_Type
  70
32
  10
1819001.78
  20
3216025.90
  30
3294
  0
VERTEX
  8
Unknown_Line_Type
  70
32
  10
1819000.78
  20
3216026.17
  30
3294
  0
VERTEX
  8
Unknown_Line_Type
  70
32
  10
1818999.68
  20
3216026.43
  30
3294
  0
VERTEX
  8
Unknown_Line_Type
  70
32
  10
1818996.48
  20
3216027.07
  30
3294
  0
VERTEX
  8
Unknown_Line_Type
  70
32
  10
1818995.48
  20
3216027.29
  30
3294
  0
VERTEX
  8
Unknown_Line_Type
  70
32
  10
1818994.52
  20
3216027.55
  30
3294
  0
VERTEX
  8
Unknown_Line_Type
  70
32
  10
1818993.59
  20
3216027.88
  30
3294
  0
VERTEX
  8
Unknown_Line_Type
  70
32
  10
1818992.71
  20
3216028.29
  30
3294
  0
VERTEX
  8
Unknown_Line_Type
  70
32
  10
1818991.83
  20
3216028.86
  30
3294
  0
VERTEX
  8
Unknown_Line_Type
  70
32
  10
1818991.00
  20
3216029.51
  30
3294
  0
VERTEX
  8
Unknown_Line_Type
  70
32
  10
1818988.55
  20
3216031.66
  30
3294
  0
VERTEX
  8
Unknown_Line_Type
  70
32
  10
1818987.70
  20
3216032.33
  30
3294
  0
VERTEX
  8
Unknown_Line_Type
  70
32
  10
1818986.79
  20
3216032.91
  30
3294
  0
VERTEX
  8
Unknown_Line_Type
  70
32
  10
1818985.73
  20
3216033.41
  30
3294
  0
VERTEX
  8
Unknown_Line_Type
  70
32
  10
1818984.62
  20
3216033.78
  30
3294
  0
VERTEX
  8
Unknown_Line_Type
  70
32
  10
1818983.45
  20
3216034.02
  30
3294
  0
VERTEX
  8
Unknown_Line_Type
  70
32
  10
1818982.43
  20
3216034.13
  30
3294
  0
VERTEX
  8
Unknown_Line_Type
  70
32
  10
1818981.40
  20
3216034.16
  30
3294
  0
VERTEX
  8
Unknown_Line_Type
  70
32
  10
1818980.36
  20
3216034.11
  30
3294
  0
VERTEX
  8
Unknown_Line_Type
  70
32
  10
1818979.32
  20
3216033.98
  30
3294
  0
VERTEX
  8
Unknown_Line_Type
  70
32
  10
1818978.28
  20
3216033.78
  30
3294
  0
VERTEX
  8
Unknown_Line_Type
  70
32
  10
1818977.27
  20
3216033.50
  30
3294
  0
VERTEX
  8
Unknown_Line_Type
  70
32
  10
1818976.28
  20
3216033.17
  30
3294
  0
VERTEX
  8
Unknown_Line_Type
  70
32
  10
1818973.33
  20
3216032.04
  30
3294
  0
VERTEX
  8
Unknown_Line_Type
  70
32
  10
1818972.35
  20
3216031.69
  30
3294
  0
VERTEX
  8
Unknown_Line_Type
  70
32
  10
1818971.37
  20
3216031.40
  30
3294
  0
VERTEX
  8
Unknown_Line_Type
  70
32
  10
1818970.38
  20
3216031.19
  30
3294
  0
VERTEX
  8
Unknown_Line_Type
  70
32
  10
1818969.22
  20
3216031.12
  30
3294
  0
VERTEX
  8
Unknown_Line_Type
  70
32
  10
1818967.91
  20
3216031.22
  30
3294
  0
VERTEX
  8
Unknown_Line_Type
  70
32
  10
1818966.49
  20
3216031.46
  30
3294
  0
VERTEX
  8
Unknown_Line_Type
  70
32
  10
1818965.02
  20
3216031.81
  30
3294
  0
VERTEX
  8
Unknown_Line_Type
  70
32
  10
1818963.56
  20
3216032.24
  30
3294
  0
VERTEX
  8
Unknown_Line_Type
  70
32
  10
1818962.17
  20
3216032.73
  30
3294
  0
VERTEX
  8
Unknown_Line_Type
  70
32
  10
1818960.90
  20
3216033.23
  30
3294
  0
VERTEX
  8
Unknown_Line_Type
  70
32
  10
1818959.71
  20
3216033.77
  30
3294
  0
VERTEX
  8
Unknown_Line_Type
  70
32
  10
1818958.80
  20
3216034.23
  30
3294
  0
VERTEX
  8
Unknown_Line_Type
  70
32
  10
1818958.00
  20
3216034.67
  30
3294
  0
SEQEND
  8
Unknown_Line_Type
  0
POLYLINE
  8
Unknown_Line_Type
  70
8
  66
1
 62
0
 39
0
  0
VERTEX
  8
Unknown_Line_Type
  70
32
  10
1819011.49
  20
3216028.94
  30
3296
  0
VERTEX
  8
Unknown_Line_Type
  70
32
  10
1819011.46
  20
3216028.91
  30
3296
  0
VERTEX
  8
Unknown_Line_Type
  70
32
  10
1819011.27
  20
3216028.94
  30
3296
  0
VERTEX
  8
Unknown_Line_Type
  70
32
  10
1819010.42
  20
3216029.27
  30
3296
  0
VERTEX
  8
Unknown_Line_Type
  70
32
  10
1819003.97
  20
3216032.40
  30
3296
  0
VERTEX
  8
Unknown_Line_Type
  70
32
  10
1819001.54
  20
3216033.67
  30
3296
  0
VERTEX
  8
Unknown_Line_Type
  70
32
  10
1819000.53
  20
3216034.26
  30
3296
  0
VERTEX
  8
Unknown_Line_Type
  70
32
  10
1818999.57
  20
3216034.88
  30
3296
  0
VERTEX
  8
Unknown_Line_Type
  70
32
  10
1818998.64
  20
3216035.54
  30
3296
  0
VERTEX
  8
Unknown_Line_Type
  70
32
  10
1818996.14
  20
3216037.51
  30
3296
  0
VERTEX
  8
Unknown_Line_Type
  70
32
  10
1818995.28
  20
3216038.12
  30
3296
  0
VERTEX
  8
Unknown_Line_Type
  70
32
  10
1818994.33
  20
3216038.68
  30
3296
  0
VERTEX
  8
Unknown_Line_Type
  70
32
  10
1818993.35
  20
3216039.18
  30
3296
  0
VERTEX
  8
Unknown_Line_Type
  70
32
  10
1818992.32
  20
3216039.63
  30
3296
  0
VERTEX
  8
Unknown_Line_Type
  70
32
  10
1818991.28
  20
3216040.02
  30
3296
  0
VERTEX
  8
Unknown_Line_Type
  70
32
  10
1818990.21
  20
3216040.36
  30
3296
  0
VERTEX
  8
Unknown_Line_Type
  70
32
  10
1818989.17
  20
3216040.64
  30
3296
  0
VERTEX
  8
Unknown_Line_Type
  70
32
  10
1818988.13
  20
3216040.88
  30
3296
  0
VERTEX
  8
Unknown_Line_Type
  70
32
  10
1818987.07
  20
3216041.07
  30
3296
  0
VERTEX
  8
Unknown_Line_Type
  70
32
  10
1818986.00
  20
3216041.23
  30
3296
  0
VERTEX
  8
Unknown_Line_Type
  70
32
  10
1818984.93
  20
3216041.34
  30
3296
  0
VERTEX
  8
Unknown_Line_Type
  70
32
  10
1818983.86
  20
3216041.41
  30
3296
  0
VERTEX
  8
Unknown_Line_Type
  70
32
  10
1818979.57
  20
3216041.51
  30
3296
  0
VERTEX
  8
Unknown_Line_Type
  70
32
  10
1818977.44
  20
3216041.64
  30
3296
  0
VERTEX
  8
Unknown_Line_Type
  70
32
  10
1818976.41
  20
3216041.76
  30
3296
  0
VERTEX
  8
Unknown_Line_Type
  70
32
  10
1818974.36
  20
3216042.11
  30
3296
  0
VERTEX
  8
Unknown_Line_Type
  70
32
  10
1818971.35
  20
3216042.69
  30
3296
  0
VERTEX
  8
Unknown_Line_Type
  70
32
  10
1818970.36
  20
3216042.90
  30
3296
  0
VERTEX
  8
Unknown_Line_Type
  70
32
  10
1818969.41
  20
3216043.17
  30
3296
  0
VERTEX
  8
Unknown_Line_Type
  70
32
  10
1818968.45
  20
3216043.55
  30
3296
  0
VERTEX
  8
Unknown_Line_Type
  70
32
  10
1818967.51
  20
3216044.02
  30
3296
  0
VERTEX
  8
Unknown_Line_Type
  70
32
  10
1818966.47
  20
3216044.64
  30
3296
  0
VERTEX
  8
Unknown_Line_Type
  70
32
  10
1818964.18
  20
3216046.20
  30
3296
  0
VERTEX
  8
Unknown_Line_Type
  70
32
  10
1818959.83
  20
3216049.31
  30
3296
  0
VERTEX
  8
Unknown_Line_Type
  70
32
  10
1818958.52
  20
3216050.16
  30
3296
  0
VERTEX
  8
Unknown_Line_Type
  70
32
  10
1818958.15
  20
3216050.38
  30
3296
  0
VERTEX
  8
Unknown_Line_Type
  70
32
  10
1818958.00
  20
3216050.42
  30
3296
  0
SEQEND
  8
Unknown_Line_Type
  0
POLYLINE
  8
Unknown_Line_Type
  70
8
  66
1
 62
0
 39
0
  0
VERTEX
  8
Unknown_Line_Type
  70
32
  10
1819000.73
  20
3216040.45
  30
3298
  0
VERTEX
  8
Unknown_Line_Type
  70
32
  10
1818997.83
  20
3216041.07
  30
3298
  0
VERTEX
  8
Unknown_Line_Type
  70
32
  10
1818994.65
  20
3216041.83
  30
3298
  0
VERTEX
  8
Unknown_Line_Type
  70
32
  10
1818992.65
  20
3216042.37
  30
3298
  0
VERTEX
  8
Unknown_Line_Type
  70
32
  10
1818989.48
  20
3216043.34
  30
3298
  0
VERTEX
  8
Unknown_Line_Type
  70
32
  10
1818987.91
  20
3216043.76
  30
3298
  0
VERTEX
  8
Unknown_Line_Type
  70
32
  10
1818986.71
  20
3216044.01
  30
3298
  0
VERTEX
  8
Unknown_Line_Type
  70
32
  10
1818983.61
  20
3216044.50
  30
3298
  0
VERTEX
  8
Unknown_Line_Type
  70
32
  10
1818982.77
  20
3216044.68
  30
3298
  0
VERTEX
  8
Unknown_Line_Type
  70
32
  10
1818981.11
  20
3216045.12
  30
3298
  0
VERTEX
  8
Unknown_Line_Type
  70
32
  10
1818979.47
  20
3216045.64
  30
3298
  0
VERTEX
  8
Unknown_Line_Type
  70
32
  10
1818977.91
  20
3216046.21
  30
3298
  0
VERTEX
  8
Unknown_Line_Type
  70
32
  10
1818976.45
  20
3216046.80
  30
3298
  0
VERTEX
  8
Unknown_Line_Type
  70
32
  10
1818975.03
  20
3216047.45
  30
3298
  0
VERTEX
  8
Unknown_Line_Type
  70
32
  10
1818972.94
  20
3216048.52
  30
3298
  0
VERTEX
  8
Unknown_Line_Type
  70
32
  10
1818971.59
  20
3216049.11
  30
3298
  0
VERTEX
  8
Unknown_Line_Type
  70
32
  10
1818970.90
  20
3216049.37
  30
3298
  0
VERTEX
  8
Unknown_Line_Type
  70
32
  10
1818969.48
  20
3216049.82
  30
3298
  0
VERTEX
  8
Unknown_Line_Type
  70
32
  10
1818966.51
  20
3216050.62
  30
3298
  0
VERTEX
  8
Unknown_Line_Type
  70
32
  10
1818965.71
  20
3216050.89
  30
3298
  0
VERTEX
  8
Unknown_Line_Type
  70
32
  10
1818964.80
  20
3216051.25
  30
3298
  0
VERTEX
  8
Unknown_Line_Type
  70
32
  10
1818963.83
  20
3216051.68
  30
3298
  0
VERTEX
  8
Unknown_Line_Type
  70
32
  10
1818961.83
  20
3216052.64
  30
3298
  0
VERTEX
  8
Unknown_Line_Type
  70
32
  10
1818960.00
  20
3216053.57
  30
3298
  0
VERTEX
  8
Unknown_Line_Type
  70
32
  10
1818958.00
  20
3216054.64
  30
3298
  0
SEQEND
  8
Unknown_Line_Type
  0
POLYLINE
  8
Unknown_Line_Type
  70
8
  66
1
 62
0
 39
0
  0
VERTEX
  8
Unknown_Line_Type
  70
32
  10
1818995.34
  20
3216046.21
  30
3300
  0
VERTEX
  8
Unknown_Line_Type
  70
32
  10
1818990.94
  20
3216047.39
  30
3300
  0
VERTEX
  8
Unknown_Line_Type
  70
32
  10
1818988.15
  20
3216048.23
  30
3300
  0
VERTEX
  8
Unknown_Line_Type
  70
32
  10
1818985.88
  20
3216049.06
  30
3300
  0
VERTEX
  8
Unknown_Line_Type
  70
32
  10
1818983.87
  20
3216049.92
  30
3300
  0
VERTEX
  8
Unknown_Line_Type
  70
32
  10
1818982.58
  20
3216050.57
  30
3300
  0
VERTEX
  8
Unknown_Line_Type
  70
32
  10
1818981.96
  20
3216050.94
  30
3300
  0
VERTEX
  8
Unknown_Line_Type
  70
32
  10
1818981.36
  20
3216051.33
  30
3300
  0
VERTEX
  8
Unknown_Line_Type
  70
32
  10
1818980.31
  20
3216052.17
  30
3300
  0
VERTEX
  8
Unknown_Line_Type
  70
32
  10
1818978.79
  20
3216053.51
  30
3300
  0
VERTEX
  8
Unknown_Line_Type
  70
32
  10
1818977.72
  20
3216054.32
  30
3300
  0
VERTEX
  8
Unknown_Line_Type
  70
32
  10
1818977.10
  20
3216054.70
  30
3300
  0
VERTEX
  8
Unknown_Line_Type
  70
32
  10
1818975.78
  20
3216055.35
  30
3300
  0
VERTEX
  8
Unknown_Line_Type
  70
32
  10
1818973.69
  20
3216056.16
  30
3300
  0
VERTEX
  8
Unknown_Line_Type
  70
32
  10
1818972.26
  20
3216056.64
  30
3300
  0
VERTEX
  8
Unknown_Line_Type
  70
32
  10
1818970.09
  20
3216057.32
  30
3300
  0
VERTEX
  8
Unknown_Line_Type
  70
32
  10
1818968.63
  20
3216057.73
  30
3300
  0
VERTEX
  8
Unknown_Line_Type
  70
32
  10
1818967.16
  20
3216058.08
  30
3300
  0
VERTEX
  8
Unknown_Line_Type
  70
32
  10
1818965.60
  20
3216058.33
  30
3300
  0
VERTEX
  8
Unknown_Line_Type
  70
32
  10
1818960.71
  20
3216058.96
  30
3300
  0
VERTEX
  8
Unknown_Line_Type
  70
32
  10
1818959.11
  20
3216059.20
  30
3300
  0
VERTEX
  8
Unknown_Line_Type
  70
32
  10
1818958.00
  20
3216059.41
  30
3300
  0
SEQEND
  8
Unknown_Line_Type
  0
POLYLINE
  8
Unknown_Line_Type
  70
8
  66
1
 62
0
 39
0
  0
VERTEX
  8
Unknown_Line_Type
  70
32
  10
1818958.00
  20
3216067.46
  30
3302
  0
VERTEX
  8
Unknown_Line_Type
  70
32
  10
1818959.50
  20
3216067.32
  30
3302
  0
VERTEX
  8
Unknown_Line_Type
  70
32
  10
1818962.05
  20
3216066.95
  30
3302
  0
VERTEX
  8
Unknown_Line_Type
  70
32
  10
1818966.06
  20
3216066.24
  30
3302
  0
VERTEX
  8
Unknown_Line_Type
  70
32
  10
1818967.25
  20
3216065.95
  30
3302
  0
VERTEX
  8
Unknown_Line_Type
  70
32
  10
1818968.58
  20
3216065.52
  30
3302
  0
VERTEX
  8
Unknown_Line_Type
  70
32
  10
1818973.04
  20
3216063.94
  30
3302
  0
VERTEX
  8
Unknown_Line_Type
  70
32
  10
1818978.39
  20
3216062.16
  30
3302
  0
VERTEX
  8
Unknown_Line_Type
  70
32
  10
1818979.61
  20
3216061.68
  30
3302
  0
VERTEX
  8
Unknown_Line_Type
  70
32
  10
1818980.76
  20
3216061.15
  30
3302
  0
VERTEX
  8
Unknown_Line_Type
  70
32
  10
1818981.56
  20
3216060.73
  30
3302
  0
VERTEX
  8
Unknown_Line_Type
  70
32
  10
1818982.08
  20
3216060.40
  30
3302
  0
SEQEND
  8
Unknown_Line_Type
  0
POLYLINE
  8
Unknown_Line_Type
  70
8
  66
1
 62
0
 39
0
  0
VERTEX
  8
Unknown_Line_Type
  70
32
  10
1818983.91
  20
3216058.45
  30
3302
  0
VERTEX
  8
Unknown_Line_Type
  70
32
  10
1818985.72
  20
3216056.33
  30
3302
  0
VERTEX
  8
Unknown_Line_Type
  70
32
  10
1818985.93
  20
3216056.12
  30
3302
  0
VERTEX
  8
Unknown_Line_Type
  70
32
  10
1818986.45
  20
3216055.73
  30
3302
  0
SEQEND
  8
Unknown_Line_Type
  0
POLYLINE
  8
Unknown_Line_Type
  70
8
  66
1
 62
0
 39
0
  0
VERTEX
  8
Unknown_Line_Type
  70
32
  10
1818958.00
  20
3216073.83
  30
3304
  0
VERTEX
  8
Unknown_Line_Type
  70
32
  10
1818959.84
  20
3216073.73
  30
3304
  0
VERTEX
  8
Unknown_Line_Type
  70
32
  10
1818960.94
  20
3216073.61
  30
3304
  0
VERTEX
  8
Unknown_Line_Type
  70
32
  10
1818965.25
  20
3216072.71
  30
3304
  0
VERTEX
  8
Unknown_Line_Type
  70
32
  10
1818966.27
  20
3216072.55
  30
3304
  0
VERTEX
  8
Unknown_Line_Type
  70
32
  10
1818967.19
  20
3216072.52
  30
3304
  0
VERTEX
  8
Unknown_Line_Type
  70
32
  10
1818968.74
  20
3216072.60
  30
3304
  0
VERTEX
  8
Unknown_Line_Type
  70
32
  10
1818969.38
  20
3216072.61
  30
3304
  0
VERTEX
  8
Unknown_Line_Type
  70
32
  10
1818970.31
  20
3216072.54
  30
3304
  0
VERTEX
  8
Unknown_Line_Type
  70
32
  10
1818970.87
  20
3216072.40
  30
3304
  0
SEQEND
  8
Unknown_Line_Type
  0
POLYLINE
  8
Unknown_Line_Type
  70
8
  66
1
 62
0
 39
0
  0
VERTEX
  8
Unknown_Line_Type
  70
32
  10
1818958.00
  20
3216079.75
  30
3306
  0
VERTEX
  8
Unknown_Line_Type
  70
32
  10
1818960.02
  20
3216078.36
  30
3306
  0
VERTEX
  8
Unknown_Line_Type
  70
32
  10
1818960.51
  20
3216078.09
  30
3306
  0
VERTEX
  8
Unknown_Line_Type
  70
32
  10
1818960.85
  20
3216077.94
  30
3306
  0
VERTEX
  8
Unknown_Line_Type
  70
32
  10
1818961.73
  20
3216077.71
  30
3306
  0
VERTEX
  8
Unknown_Line_Type
  70
32
  10
1818965.20
  20
3216076.98
  30
3306
  0
VERTEX
  8
Unknown_Line_Type
  70
32
  10
1818966.36
  20
3216076.77
  30
3306
  0
VERTEX
  8
Unknown_Line_Type
  70
32
  10
1818966.83
  20
3216076.72
  30
3306
  0
SEQEND
  8
Unknown_Line_Type
  0
ENDSEC
  0
EOF
