  0
SECTION
  2
HEADER
  9
$ACADVER
  1
AC1009
  9
$LUNITS
  70
2
  9
$LIMMIN
  10
1523686.00
  20
2797413.00
  9
$LIMMAX
  10
1531888.00
  20
2805615.00
  9
$EXTMIN
  10
1523686.00
  20
2797413.00
  9
$EXTMAX
  10
1531888.00
  20
2805615.00
  999
Created by Global Mapper
  999
Projection: State Plane Coordinate System
  999
Datum: NAD83
  999
Ground Units: feet
  999
ZONE: 5004
  999
STATE PLANE SCALE FACTOR: 1
  999
EXTRA FALSE EASTING (m): 0
  999
EXTRA FALSE NORTHING (m): 0
  999
EXTRA SCALE CENTER EASTING (m): 0
  999
EXTRA SCALE CENTER NORTHING (m): 0
  0
ENDSEC
  0
SECTION
  2
BLOCKS
  0
BLOCK
  8
FeatureAttribs
  70
0
  2
FEATURE
  3
FEATURE
  10
0.00000000
  20
0.00000000
  0
ATTDEF
  8
FeatureAttribs
  70
0
  1
 
  2
NAME
  3
NAME
  10
0.00000000
  20
0.00000000
  40
1.00000000
  0
ENDBLK
  0
ENDSEC
  0
SECTION
  2
ENTITIES
  0
POLYLINE
  8
INTERMEDIATE
  70
8
  66
1
 62
0
 39
0
  0
VERTEX
  8
INTERMEDIATE
  70
32
  10
1531883.12
  20
2799145.63
  30
112
  0
VERTEX
  8
INTERMEDIATE
  70
32
  10
1531885.19
  20
2799137.97
  30
112
  0
VERTEX
  8
INTERMEDIATE
  70
32
  10
1531886.32
  20
2799133.66
  30
112
  0
VERTEX
  8
INTERMEDIATE
  70
32
  10
1531887.26
  20
2799129.74
  30
112
  0
VERTEX
  8
INTERMEDIATE
  70
32
  10
1531887.61
  20
2799128.10
  30
112
  0
VERTEX
  8
INTERMEDIATE
  70
32
  10
1531887.88
  20
2799126.60
  30
112
  0
VERTEX
  8
INTERMEDIATE
  70
32
  10
1531888.00
  20
2799125.83
  30
112
  0
SEQEND
  8
INTERMEDIATE
  0
POLYLINE
  8
INTERMEDIATE
  70
8
  66
1
 62
0
 39
0
  0
VERTEX
  8
INTERMEDIATE
  70
32
  10
1531888.00
  20
2799264.05
  30
96
  0
VERTEX
  8
INTERMEDIATE
  70
32
  10
1531887.90
  20
2799264.26
  30
96
  0
SEQEND
  8
INTERMEDIATE
  0
POLYLINE
  8
INTERMEDIATE
  70
8
  66
1
 62
0
 39
0
  0
VERTEX
  8
INTERMEDIATE
  70
32
  10
1531888.00
  20
2799255.73
  30
98
  0
VERTEX
  8
INTERMEDIATE
  70
32
  10
1531887.79
  20
2799256.16
  30
98
  0
VERTEX
  8
INTERMEDIATE
  70
32
  10
1531887.59
  20
2799256.44
  30
98
  0
SEQEND
  8
INTERMEDIATE
  0
POLYLINE
  8
INDEX
  70
8
  66
1
 62
0
 39
0
  0
VERTEX
  8
INDEX
  70
32
  10
1531887.25
  20
2799248.01
  30
100
  0
VERTEX
  8
INDEX
  70
32
  10
1531888.00
  20
2799244.74
  30
100
  0
SEQEND
  8
INDEX
  0
POLYLINE
  8
INTERMEDIATE
  70
8
  66
1
 62
0
 39
0
  0
VERTEX
  8
INTERMEDIATE
  70
32
  10
1531886.68
  20
2799233.90
  30
102
  0
VERTEX
  8
INTERMEDIATE
  70
32
  10
1531887.18
  20
2799232.87
  30
102
  0
VERTEX
  8
INTERMEDIATE
  70
32
  10
1531888.00
  20
2799231.06
  30
102
  0
SEQEND
  8
INTERMEDIATE
  0
POLYLINE
  8
INTERMEDIATE
  70
8
  66
1
 62
0
 39
0
  0
VERTEX
  8
INTERMEDIATE
  70
32
  10
1531888.00
  20
2799220.05
  30
104
  0
VERTEX
  8
INTERMEDIATE
  70
32
  10
1531887.63
  20
2799222.23
  30
104
  0
VERTEX
  8
INTERMEDIATE
  70
32
  10
1531887.31
  20
2799223.74
  30
104
  0
VERTEX
  8
INTERMEDIATE
  70
32
  10
1531886.96
  20
2799225.10
  30
104
  0
VERTEX
  8
INTERMEDIATE
  70
32
  10
1531886.65
  20
2799226.04
  30
104
  0
VERTEX
  8
INTERMEDIATE
  70
32
  10
1531886.43
  20
2799226.49
  30
104
  0
VERTEX
  8
INTERMEDIATE
  70
32
  10
1531886.38
  20
2799226.51
  30
104
  0
SEQEND
  8
INTERMEDIATE
  0
POLYLINE
  8
INTERMEDIATE
  70
8
  66
1
 62
0
 39
0
  0
VERTEX
  8
INTERMEDIATE
  70
32
  10
1531885.60
  20
2799207.09
  30
106
  0
VERTEX
  8
INTERMEDIATE
  70
32
  10
1531885.59
  20
2799206.64
  30
106
  0
VERTEX
  8
INTERMEDIATE
  70
32
  10
1531885.65
  20
2799205.81
  30
106
  0
VERTEX
  8
INTERMEDIATE
  70
32
  10
1531885.79
  20
2799204.63
  30
106
  0
VERTEX
  8
INTERMEDIATE
  70
32
  10
1531886.03
  20
2799203.17
  30
106
  0
VERTEX
  8
INTERMEDIATE
  70
32
  10
1531887.05
  20
2799198.64
  30
106
  0
VERTEX
  8
INTERMEDIATE
  70
32
  10
1531887.43
  20
2799196.84
  30
106
  0
VERTEX
  8
INTERMEDIATE
  70
32
  10
1531887.75
  20
2799194.99
  30
106
  0
VERTEX
  8
INTERMEDIATE
  70
32
  10
1531888.00
  20
2799193.40
  30
106
  0
SEQEND
  8
INTERMEDIATE
  0
POLYLINE
  8
INTERMEDIATE
  70
8
  66
1
 62
0
 39
0
  0
VERTEX
  8
INTERMEDIATE
  70
32
  10
1531888.00
  20
2799167.83
  30
108
  0
VERTEX
  8
INTERMEDIATE
  70
32
  10
1531887.29
  20
2799170.05
  30
108
  0
VERTEX
  8
INTERMEDIATE
  70
32
  10
1531885.98
  20
2799174.49
  30
108
  0
VERTEX
  8
INTERMEDIATE
  70
32
  10
1531885.18
  20
2799177.49
  30
108
  0
VERTEX
  8
INTERMEDIATE
  70
32
  10
1531884.70
  20
2799179.46
  30
108
  0
VERTEX
  8
INTERMEDIATE
  70
32
  10
1531884.51
  20
2799180.08
  30
108
  0
SEQEND
  8
INTERMEDIATE
  0
POLYLINE
  8
INDEX
  70
8
  66
1
 62
0
 39
0
  0
VERTEX
  8
INDEX
  70
32
  10
1531883.59
  20
2799157.38
  30
110
  0
VERTEX
  8
INDEX
  70
32
  10
1531885.44
  20
2799155.47
  30
110
  0
VERTEX
  8
INDEX
  70
32
  10
1531888.00
  20
2799152.70
  30
110
  0
SEQEND
  8
INDEX
  0
POLYLINE
  8
INTERMEDIATE
  70
8
  66
1
 62
0
 39
0
  0
VERTEX
  8
INTERMEDIATE
  70
32
  10
1531863.09
  20
2798648.88
  30
114
  0
VERTEX
  8
INTERMEDIATE
  70
32
  10
1531863.43
  20
2798648.84
  30
114
  0
VERTEX
  8
INTERMEDIATE
  70
32
  10
1531864.11
  20
2798648.48
  30
114
  0
VERTEX
  8
INTERMEDIATE
  70
32
  10
1531865.08
  20
2798647.87
  30
114
  0
VERTEX
  8
INTERMEDIATE
  70
32
  10
1531866.28
  20
2798647.04
  30
114
  0
VERTEX
  8
INTERMEDIATE
  70
32
  10
1531867.64
  20
2798646.04
  30
114
  0
VERTEX
  8
INTERMEDIATE
  70
32
  10
1531870.33
  20
2798644.01
  30
114
  0
VERTEX
  8
INTERMEDIATE
  70
32
  10
1531871.76
  20
2798643.03
  30
114
  0
VERTEX
  8
INTERMEDIATE
  70
32
  10
1531873.26
  20
2798642.19
  30
114
  0
VERTEX
  8
INTERMEDIATE
  70
32
  10
1531875.14
  20
2798641.46
  30
114
  0
VERTEX
  8
INTERMEDIATE
  70
32
  10
1531877.01
  20
2798641.03
  30
114
  0
VERTEX
  8
INTERMEDIATE
  70
32
  10
1531878.79
  20
2798640.86
  30
114
  0
VERTEX
  8
INTERMEDIATE
  70
32
  10
1531880.49
  20
2798640.86
  30
114
  0
VERTEX
  8
INTERMEDIATE
  70
32
  10
1531882.23
  20
2798640.92
  30
114
  0
VERTEX
  8
INTERMEDIATE
  70
32
  10
1531887.47
  20
2798641.18
  30
114
  0
VERTEX
  8
INTERMEDIATE
  70
32
  10
1531888.00
  20
2798641.20
  30
114
  0
SEQEND
  8
INTERMEDIATE
  0
POLYLINE
  8
INTERMEDIATE
  70
8
  66
1
 62
0
 39
0
  0
VERTEX
  8
INTERMEDIATE
  70
32
  10
1531888.00
  20
2799031.30
  30
114
  0
VERTEX
  8
INTERMEDIATE
  70
32
  10
1531887.68
  20
2799032.03
  30
114
  0
VERTEX
  8
INTERMEDIATE
  70
32
  10
1531887.27
  20
2799033.25
  30
114
  0
VERTEX
  8
INTERMEDIATE
  70
32
  10
1531886.90
  20
2799034.86
  30
114
  0
VERTEX
  8
INTERMEDIATE
  70
32
  10
1531886.66
  20
2799036.51
  30
114
  0
VERTEX
  8
INTERMEDIATE
  70
32
  10
1531886.50
  20
2799038.19
  30
114
  0
VERTEX
  8
INTERMEDIATE
  70
32
  10
1531885.82
  20
2799045.64
  30
114
  0
VERTEX
  8
INTERMEDIATE
  70
32
  10
1531885.60
  20
2799049.29
  30
114
  0
VERTEX
  8
INTERMEDIATE
  70
32
  10
1531885.55
  20
2799051.11
  30
114
  0
VERTEX
  8
INTERMEDIATE
  70
32
  10
1531885.57
  20
2799053.43
  30
114
  0
VERTEX
  8
INTERMEDIATE
  70
32
  10
1531885.64
  20
2799054.69
  30
114
  0
VERTEX
  8
INTERMEDIATE
  70
32
  10
1531885.95
  20
2799057.76
  30
114
  0
VERTEX
  8
INTERMEDIATE
  70
32
  10
1531886.32
  20
2799060.76
  30
114
  0
VERTEX
  8
INTERMEDIATE
  70
32
  10
1531886.53
  20
2799062.67
  30
114
  0
VERTEX
  8
INTERMEDIATE
  70
32
  10
1531886.65
  20
2799064.58
  30
114
  0
VERTEX
  8
INTERMEDIATE
  70
32
  10
1531886.64
  20
2799066.49
  30
114
  0
VERTEX
  8
INTERMEDIATE
  70
32
  10
1531886.48
  20
2799068.37
  30
114
  0
VERTEX
  8
INTERMEDIATE
  70
32
  10
1531886.17
  20
2799070.26
  30
114
  0
VERTEX
  8
INTERMEDIATE
  70
32
  10
1531885.06
  20
2799075.56
  30
114
  0
VERTEX
  8
INTERMEDIATE
  70
32
  10
1531884.79
  20
2799077.09
  30
114
  0
VERTEX
  8
INTERMEDIATE
  70
32
  10
1531884.56
  20
2799078.64
  30
114
  0
VERTEX
  8
INTERMEDIATE
  70
32
  10
1531884.39
  20
2799080.18
  30
114
  0
VERTEX
  8
INTERMEDIATE
  70
32
  10
1531884.29
  20
2799081.66
  30
114
  0
VERTEX
  8
INTERMEDIATE
  70
32
  10
1531884.23
  20
2799083.15
  30
114
  0
VERTEX
  8
INTERMEDIATE
  70
32
  10
1531884.24
  20
2799086.12
  30
114
  0
VERTEX
  8
INTERMEDIATE
  70
32
  10
1531884.33
  20
2799089.61
  30
114
  0
VERTEX
  8
INTERMEDIATE
  70
32
  10
1531884.32
  20
2799091.37
  30
114
  0
VERTEX
  8
INTERMEDIATE
  70
32
  10
1531884.22
  20
2799092.96
  30
114
  0
VERTEX
  8
INTERMEDIATE
  70
32
  10
1531884.04
  20
2799094.69
  30
114
  0
VERTEX
  8
INTERMEDIATE
  70
32
  10
1531883.50
  20
2799098.72
  30
114
  0
VERTEX
  8
INTERMEDIATE
  70
32
  10
1531882.29
  20
2799106.77
  30
114
  0
VERTEX
  8
INTERMEDIATE
  70
32
  10
1531881.88
  20
2799109.26
  30
114
  0
VERTEX
  8
INTERMEDIATE
  70
32
  10
1531881.69
  20
2799110.21
  30
114
  0
SEQEND
  8
INTERMEDIATE
  0
POLYLINE
  8
INTERMEDIATE
  70
8
  66
1
 62
0
 39
0
  0
VERTEX
  8
INTERMEDIATE
  70
32
  10
1531888.00
  20
2798434.10
  30
114
  0
VERTEX
  8
INTERMEDIATE
  70
32
  10
1531886.86
  20
2798435.55
  30
114
  0
VERTEX
  8
INTERMEDIATE
  70
32
  10
1531885.72
  20
2798436.95
  30
114
  0
VERTEX
  8
INTERMEDIATE
  70
32
  10
1531883.57
  20
2798439.36
  30
114
  0
VERTEX
  8
INTERMEDIATE
  70
32
  10
1531882.55
  20
2798440.60
  30
114
  0
VERTEX
  8
INTERMEDIATE
  70
32
  10
1531881.56
  20
2798442.02
  30
114
  0
VERTEX
  8
INTERMEDIATE
  70
32
  10
1531880.70
  20
2798443.54
  30
114
  0
VERTEX
  8
INTERMEDIATE
  70
32
  10
1531879.96
  20
2798445.19
  30
114
  0
VERTEX
  8
INTERMEDIATE
  70
32
  10
1531879.29
  20
2798446.91
  30
114
  0
VERTEX
  8
INTERMEDIATE
  70
32
  10
1531878.65
  20
2798448.68
  30
114
  0
VERTEX
  8
INTERMEDIATE
  70
32
  10
1531877.03
  20
2798453.80
  30
114
  0
VERTEX
  8
INTERMEDIATE
  70
32
  10
1531876.46
  20
2798455.42
  30
114
  0
VERTEX
  8
INTERMEDIATE
  70
32
  10
1531875.78
  20
2798456.97
  30
114
  0
VERTEX
  8
INTERMEDIATE
  70
32
  10
1531874.99
  20
2798458.36
  30
114
  0
VERTEX
  8
INTERMEDIATE
  70
32
  10
1531874.26
  20
2798459.38
  30
114
  0
VERTEX
  8
INTERMEDIATE
  70
32
  10
1531873.45
  20
2798460.35
  30
114
  0
VERTEX
  8
INTERMEDIATE
  70
32
  10
1531872.59
  20
2798461.29
  30
114
  0
VERTEX
  8
INTERMEDIATE
  70
32
  10
1531871.36
  20
2798462.54
  30
114
  0
VERTEX
  8
INTERMEDIATE
  70
32
  10
1531870.01
  20
2798463.84
  30
114
  0
VERTEX
  8
INTERMEDIATE
  70
32
  10
1531868.43
  20
2798465.30
  30
114
  0
VERTEX
  8
INTERMEDIATE
  70
32
  10
1531864.85
  20
2798468.47
  30
114
  0
VERTEX
  8
INTERMEDIATE
  70
32
  10
1531857.06
  20
2798475.13
  30
114
  0
VERTEX
  8
INTERMEDIATE
  70
32
  10
1531856.12
  20
2798475.96
  30
114
  0
SEQEND
  8
INTERMEDIATE
  0
POLYLINE
  8
INTERMEDIATE
  70
8
  66
1
 62
0
 39
0
  0
VERTEX
  8
INTERMEDIATE
  70
32
  10
1531878.91
  20
2799041.31
  30
116
  0
VERTEX
  8
INTERMEDIATE
  70
32
  10
1531879.55
  20
2799039.96
  30
116
  0
VERTEX
  8
INTERMEDIATE
  70
32
  10
1531880.02
  20
2799038.87
  30
116
  0
VERTEX
  8
INTERMEDIATE
  70
32
  10
1531880.23
  20
2799038.24
  30
116
  0
VERTEX
  8
INTERMEDIATE
  70
32
  10
1531880.29
  20
2799037.96
  30
116
  0
VERTEX
  8
INTERMEDIATE
  70
32
  10
1531880.34
  20
2799037.38
  30
116
  0
VERTEX
  8
INTERMEDIATE
  70
32
  10
1531880.29
  20
2799036.78
  30
116
  0
VERTEX
  8
INTERMEDIATE
  70
32
  10
1531880.20
  20
2799036.19
  30
116
  0
VERTEX
  8
INTERMEDIATE
  70
32
  10
1531879.70
  20
2799033.78
  30
116
  0
VERTEX
  8
INTERMEDIATE
  70
32
  10
1531879.50
  20
2799032.57
  30
116
  0
VERTEX
  8
INTERMEDIATE
  70
32
  10
1531879.40
  20
2799031.35
  30
116
  0
VERTEX
  8
INTERMEDIATE
  70
32
  10
1531879.31
  20
2799028.91
  30
116
  0
VERTEX
  8
INTERMEDIATE
  70
32
  10
1531879.24
  20
2799028.25
  30
116
  0
VERTEX
  8
INTERMEDIATE
  70
32
  10
1531879.06
  20
2799027.49
  30
116
  0
VERTEX
  8
INTERMEDIATE
  70
32
  10
1531878.93
  20
2799027.12
  30
116
  0
VERTEX
  8
INTERMEDIATE
  70
32
  10
1531878.64
  20
2799026.44
  30
116
  0
VERTEX
  8
INTERMEDIATE
  70
32
  10
1531878.29
  20
2799025.77
  30
116
  0
SEQEND
  8
INTERMEDIATE
  0
POLYLINE
  8
INTERMEDIATE
  70
8
  66
1
 62
0
 39
0
  0
VERTEX
  8
INTERMEDIATE
  70
32
  10
1531878.22
  20
2799024.22
  30
116
  0
VERTEX
  8
INTERMEDIATE
  70
32
  10
1531881.95
  20
2799019.62
  30
116
  0
VERTEX
  8
INTERMEDIATE
  70
32
  10
1531883.31
  20
2799017.85
  30
116
  0
VERTEX
  8
INTERMEDIATE
  70
32
  10
1531884.58
  20
2799016.10
  30
116
  0
VERTEX
  8
INTERMEDIATE
  70
32
  10
1531888.00
  20
2799011.18
  30
116
  0
SEQEND
  8
INTERMEDIATE
  0
POLYLINE
  8
INTERMEDIATE
  70
8
  66
1
 62
0
 39
0
  0
VERTEX
  8
INTERMEDIATE
  70
32
  10
1531888.00
  20
2798669.33
  30
116
  0
VERTEX
  8
INTERMEDIATE
  70
32
  10
1531886.55
  20
2798667.78
  30
116
  0
VERTEX
  8
INTERMEDIATE
  70
32
  10
1531884.32
  20
2798665.46
  30
116
  0
VERTEX
  8
INTERMEDIATE
  70
32
  10
1531883.19
  20
2798664.35
  30
116
  0
VERTEX
  8
INTERMEDIATE
  70
32
  10
1531882.04
  20
2798663.31
  30
116
  0
VERTEX
  8
INTERMEDIATE
  70
32
  10
1531880.85
  20
2798662.36
  30
116
  0
VERTEX
  8
INTERMEDIATE
  70
32
  10
1531879.61
  20
2798661.60
  30
116
  0
VERTEX
  8
INTERMEDIATE
  70
32
  10
1531878.17
  20
2798660.99
  30
116
  0
VERTEX
  8
INTERMEDIATE
  70
32
  10
1531876.57
  20
2798660.59
  30
116
  0
VERTEX
  8
INTERMEDIATE
  70
32
  10
1531874.87
  20
2798660.43
  30
116
  0
VERTEX
  8
INTERMEDIATE
  70
32
  10
1531872.80
  20
2798660.56
  30
116
  0
VERTEX
  8
INTERMEDIATE
  70
32
  10
1531870.76
  20
2798660.95
  30
116
  0
VERTEX
  8
INTERMEDIATE
  70
32
  10
1531868.82
  20
2798661.49
  30
116
  0
VERTEX
  8
INTERMEDIATE
  70
32
  10
1531867.08
  20
2798662.08
  30
116
  0
VERTEX
  8
INTERMEDIATE
  70
32
  10
1531864.26
  20
2798663.15
  30
116
  0
VERTEX
  8
INTERMEDIATE
  70
32
  10
1531863.82
  20
2798663.27
  30
116
  0
VERTEX
  8
INTERMEDIATE
  70
32
  10
1531863.67
  20
2798663.23
  30
116
  0
SEQEND
  8
INTERMEDIATE
  0
POLYLINE
  8
INTERMEDIATE
  70
8
  66
1
 62
0
 39
0
  0
VERTEX
  8
INTERMEDIATE
  70
32
  10
1531855.65
  20
2798464.18
  30
116
  0
VERTEX
  8
INTERMEDIATE
  70
32
  10
1531855.95
  20
2798463.97
  30
116
  0
VERTEX
  8
INTERMEDIATE
  70
32
  10
1531856.68
  20
2798463.33
  30
116
  0
VERTEX
  8
INTERMEDIATE
  70
32
  10
1531857.71
  20
2798462.33
  30
116
  0
VERTEX
  8
INTERMEDIATE
  70
32
  10
1531858.94
  20
2798461.01
  30
116
  0
VERTEX
  8
INTERMEDIATE
  70
32
  10
1531860.27
  20
2798459.45
  30
116
  0
VERTEX
  8
INTERMEDIATE
  70
32
  10
1531861.46
  20
2798457.82
  30
116
  0
VERTEX
  8
INTERMEDIATE
  70
32
  10
1531862.53
  20
2798456.07
  30
116
  0
VERTEX
  8
INTERMEDIATE
  70
32
  10
1531863.34
  20
2798454.39
  30
116
  0
VERTEX
  8
INTERMEDIATE
  70
32
  10
1531863.88
  20
2798452.95
  30
116
  0
VERTEX
  8
INTERMEDIATE
  70
32
  10
1531864.31
  20
2798451.53
  30
116
  0
VERTEX
  8
INTERMEDIATE
  70
32
  10
1531865.25
  20
2798448.02
  30
116
  0
VERTEX
  8
INTERMEDIATE
  70
32
  10
1531865.80
  20
2798446.42
  30
116
  0
VERTEX
  8
INTERMEDIATE
  70
32
  10
1531866.29
  20
2798445.29
  30
116
  0
VERTEX
  8
INTERMEDIATE
  70
32
  10
1531867.04
  20
2798443.90
  30
116
  0
VERTEX
  8
INTERMEDIATE
  70
32
  10
1531867.93
  20
2798442.59
  30
116
  0
VERTEX
  8
INTERMEDIATE
  70
32
  10
1531869.07
  20
2798441.23
  30
116
  0
VERTEX
  8
INTERMEDIATE
  70
32
  10
1531870.31
  20
2798439.93
  30
116
  0
VERTEX
  8
INTERMEDIATE
  70
32
  10
1531872.34
  20
2798437.89
  30
116
  0
VERTEX
  8
INTERMEDIATE
  70
32
  10
1531873.33
  20
2798436.83
  30
116
  0
VERTEX
  8
INTERMEDIATE
  70
32
  10
1531874.49
  20
2798435.39
  30
116
  0
VERTEX
  8
INTERMEDIATE
  70
32
  10
1531875.56
  20
2798433.87
  30
116
  0
VERTEX
  8
INTERMEDIATE
  70
32
  10
1531876.54
  20
2798432.26
  30
116
  0
VERTEX
  8
INTERMEDIATE
  70
32
  10
1531877.44
  20
2798430.59
  30
116
  0
VERTEX
  8
INTERMEDIATE
  70
32
  10
1531879.83
  20
2798425.66
  30
116
  0
VERTEX
  8
INTERMEDIATE
  70
32
  10
1531880.67
  20
2798424.09
  30
116
  0
VERTEX
  8
INTERMEDIATE
  70
32
  10
1531881.39
  20
2798422.91
  30
116
  0
VERTEX
  8
INTERMEDIATE
  70
32
  10
1531883.78
  20
2798419.30
  30
116
  0
VERTEX
  8
INTERMEDIATE
  70
32
  10
1531884.62
  20
2798417.98
  30
116
  0
VERTEX
  8
INTERMEDIATE
  70
32
  10
1531885.36
  20
2798416.62
  30
116
  0
VERTEX
  8
INTERMEDIATE
  70
32
  10
1531885.95
  20
2798415.34
  30
116
  0
VERTEX
  8
INTERMEDIATE
  70
32
  10
1531886.46
  20
2798414.02
  30
116
  0
VERTEX
  8
INTERMEDIATE
  70
32
  10
1531888.00
  20
2798409.76
  30
116
  0
SEQEND
  8
INTERMEDIATE
  0
POLYLINE
  8
INTERMEDIATE
  70
8
  66
1
 62
0
 39
0
  0
VERTEX
  8
INTERMEDIATE
  70
32
  10
1531877.64
  20
2799009.64
  30
118
  0
VERTEX
  8
INTERMEDIATE
  70
32
  10
1531878.94
  20
2799007.00
  30
118
  0
VERTEX
  8
INTERMEDIATE
  70
32
  10
1531880.57
  20
2799003.60
  30
118
  0
VERTEX
  8
INTERMEDIATE
  70
32
  10
1531885.15
  20
2798993.81
  30
118
  0
VERTEX
  8
INTERMEDIATE
  70
32
  10
1531887.76
  20
2798988.55
  30
118
  0
VERTEX
  8
INTERMEDIATE
  70
32
  10
1531888.00
  20
2798988.05
  30
118
  0
SEQEND
  8
INTERMEDIATE
  0
POLYLINE
  8
INTERMEDIATE
  70
8
  66
1
 62
0
 39
0
  0
VERTEX
  8
INTERMEDIATE
  70
32
  10
1531888.00
  20
2798701.17
  30
118
  0
VERTEX
  8
INTERMEDIATE
  70
32
  10
1531887.67
  20
2798700.13
  30
118
  0
VERTEX
  8
INTERMEDIATE
  70
32
  10
1531887.09
  20
2798698.41
  30
118
  0
VERTEX
  8
INTERMEDIATE
  70
32
  10
1531886.50
  20
2798697.05
  30
118
  0
VERTEX
  8
INTERMEDIATE
  70
32
  10
1531885.83
  20
2798695.71
  30
118
  0
VERTEX
  8
INTERMEDIATE
  70
32
  10
1531882.95
  20
2798690.23
  30
118
  0
VERTEX
  8
INTERMEDIATE
  70
32
  10
1531880.75
  20
2798685.82
  30
118
  0
VERTEX
  8
INTERMEDIATE
  70
32
  10
1531879.91
  20
2798684.34
  30
118
  0
VERTEX
  8
INTERMEDIATE
  70
32
  10
1531878.78
  20
2798682.87
  30
118
  0
VERTEX
  8
INTERMEDIATE
  70
32
  10
1531877.62
  20
2798681.73
  30
118
  0
VERTEX
  8
INTERMEDIATE
  70
32
  10
1531876.28
  20
2798680.66
  30
118
  0
VERTEX
  8
INTERMEDIATE
  70
32
  10
1531874.78
  20
2798679.70
  30
118
  0
VERTEX
  8
INTERMEDIATE
  70
32
  10
1531873.20
  20
2798678.86
  30
118
  0
VERTEX
  8
INTERMEDIATE
  70
32
  10
1531871.30
  20
2798678.07
  30
118
  0
VERTEX
  8
INTERMEDIATE
  70
32
  10
1531869.45
  20
2798677.45
  30
118
  0
VERTEX
  8
INTERMEDIATE
  70
32
  10
1531867.73
  20
2798676.99
  30
118
  0
VERTEX
  8
INTERMEDIATE
  70
32
  10
1531866.25
  20
2798676.66
  30
118
  0
VERTEX
  8
INTERMEDIATE
  70
32
  10
1531864.19
  20
2798676.24
  30
118
  0
SEQEND
  8
INTERMEDIATE
  0
POLYLINE
  8
INTERMEDIATE
  70
8
  66
1
 62
0
 39
0
  0
VERTEX
  8
INTERMEDIATE
  70
32
  10
1531855.14
  20
2798451.62
  30
118
  0
VERTEX
  8
INTERMEDIATE
  70
32
  10
1531855.31
  20
2798451.48
  30
118
  0
VERTEX
  8
INTERMEDIATE
  70
32
  10
1531855.61
  20
2798450.95
  30
118
  0
VERTEX
  8
INTERMEDIATE
  70
32
  10
1531856.13
  20
2798449.77
  30
118
  0
VERTEX
  8
INTERMEDIATE
  70
32
  10
1531857.37
  20
2798446.72
  30
118
  0
VERTEX
  8
INTERMEDIATE
  70
32
  10
1531858.77
  20
2798443.56
  30
118
  0
VERTEX
  8
INTERMEDIATE
  70
32
  10
1531859.60
  20
2798441.84
  30
118
  0
VERTEX
  8
INTERMEDIATE
  70
32
  10
1531860.50
  20
2798440.12
  30
118
  0
VERTEX
  8
INTERMEDIATE
  70
32
  10
1531861.47
  20
2798438.39
  30
118
  0
VERTEX
  8
INTERMEDIATE
  70
32
  10
1531862.46
  20
2798436.78
  30
118
  0
VERTEX
  8
INTERMEDIATE
  70
32
  10
1531863.42
  20
2798435.34
  30
118
  0
VERTEX
  8
INTERMEDIATE
  70
32
  10
1531864.33
  20
2798434.09
  30
118
  0
VERTEX
  8
INTERMEDIATE
  70
32
  10
1531866.66
  20
2798431.05
  30
118
  0
VERTEX
  8
INTERMEDIATE
  70
32
  10
1531867.57
  20
2798429.68
  30
118
  0
VERTEX
  8
INTERMEDIATE
  70
32
  10
1531868.32
  20
2798428.36
  30
118
  0
VERTEX
  8
INTERMEDIATE
  70
32
  10
1531870.41
  20
2798424.24
  30
118
  0
VERTEX
  8
INTERMEDIATE
  70
32
  10
1531871.98
  20
2798421.39
  30
118
  0
VERTEX
  8
INTERMEDIATE
  70
32
  10
1531872.81
  20
2798419.99
  30
118
  0
VERTEX
  8
INTERMEDIATE
  70
32
  10
1531875.52
  20
2798415.66
  30
118
  0
VERTEX
  8
INTERMEDIATE
  70
32
  10
1531876.43
  20
2798414.08
  30
118
  0
VERTEX
  8
INTERMEDIATE
  70
32
  10
1531877.29
  20
2798412.48
  30
118
  0
VERTEX
  8
INTERMEDIATE
  70
32
  10
1531878.12
  20
2798410.85
  30
118
  0
VERTEX
  8
INTERMEDIATE
  70
32
  10
1531881.72
  20
2798403.26
  30
118
  0
VERTEX
  8
INTERMEDIATE
  70
32
  10
1531882.43
  20
2798401.86
  30
118
  0
VERTEX
  8
INTERMEDIATE
  70
32
  10
1531884.67
  20
2798397.89
  30
118
  0
VERTEX
  8
INTERMEDIATE
  70
32
  10
1531885.53
  20
2798396.28
  30
118
  0
VERTEX
  8
INTERMEDIATE
  70
32
  10
1531887.16
  20
2798393.01
  30
118
  0
VERTEX
  8
INTERMEDIATE
  70
32
  10
1531888.00
  20
2798391.26
  30
118
  0
SEQEND
  8
INTERMEDIATE
  0
POLYLINE
  8
INDEX
  70
8
  66
1
 62
0
 39
0
  0
VERTEX
  8
INDEX
  70
32
  10
1531864.53
  20
2798684.53
  30
120
  0
VERTEX
  8
INDEX
  70
32
  10
1531864.82
  20
2798684.48
  30
120
  0
VERTEX
  8
INDEX
  70
32
  10
1531865.48
  20
2798684.60
  30
120
  0
VERTEX
  8
INDEX
  70
32
  10
1531866.41
  20
2798684.92
  30
120
  0
VERTEX
  8
INDEX
  70
32
  10
1531867.54
  20
2798685.46
  30
120
  0
VERTEX
  8
INDEX
  70
32
  10
1531869.02
  20
2798686.43
  30
120
  0
VERTEX
  8
INDEX
  70
32
  10
1531870.53
  20
2798687.73
  30
120
  0
VERTEX
  8
INDEX
  70
32
  10
1531871.84
  20
2798689.17
  30
120
  0
VERTEX
  8
INDEX
  70
32
  10
1531873.06
  20
2798690.79
  30
120
  0
VERTEX
  8
INDEX
  70
32
  10
1531874.19
  20
2798692.51
  30
120
  0
VERTEX
  8
INDEX
  70
32
  10
1531874.86
  20
2798693.63
  30
120
  0
VERTEX
  8
INDEX
  70
32
  10
1531875.88
  20
2798695.45
  30
120
  0
VERTEX
  8
INDEX
  70
32
  10
1531876.73
  20
2798697.15
  30
120
  0
VERTEX
  8
INDEX
  70
32
  10
1531877.44
  20
2798698.75
  30
120
  0
VERTEX
  8
INDEX
  70
32
  10
1531878.10
  20
2798700.35
  30
120
  0
VERTEX
  8
INDEX
  70
32
  10
1531878.53
  20
2798701.51
  30
120
  0
VERTEX
  8
INDEX
  70
32
  10
1531878.90
  20
2798702.68
  30
120
  0
VERTEX
  8
INDEX
  70
32
  10
1531879.14
  20
2798703.60
  30
120
  0
VERTEX
  8
INDEX
  70
32
  10
1531879.33
  20
2798704.53
  30
120
  0
VERTEX
  8
INDEX
  70
32
  10
1531879.57
  20
2798705.94
  30
120
  0
VERTEX
  8
INDEX
  70
32
  10
1531880.19
  20
2798710.24
  30
120
  0
VERTEX
  8
INDEX
  70
32
  10
1531880.70
  20
2798713.20
  30
120
  0
VERTEX
  8
INDEX
  70
32
  10
1531881.33
  20
2798716.10
  30
120
  0
VERTEX
  8
INDEX
  70
32
  10
1531881.77
  20
2798717.74
  30
120
  0
VERTEX
  8
INDEX
  70
32
  10
1531882.28
  20
2798719.32
  30
120
  0
VERTEX
  8
INDEX
  70
32
  10
1531882.88
  20
2798720.84
  30
120
  0
VERTEX
  8
INDEX
  70
32
  10
1531883.37
  20
2798721.87
  30
120
  0
VERTEX
  8
INDEX
  70
32
  10
1531883.91
  20
2798722.85
  30
120
  0
VERTEX
  8
INDEX
  70
32
  10
1531885.54
  20
2798725.33
  30
120
  0
VERTEX
  8
INDEX
  70
32
  10
1531886.17
  20
2798726.39
  30
120
  0
VERTEX
  8
INDEX
  70
32
  10
1531886.74
  20
2798727.50
  30
120
  0
VERTEX
  8
INDEX
  70
32
  10
1531887.23
  20
2798728.66
  30
120
  0
VERTEX
  8
INDEX
  70
32
  10
1531887.73
  20
2798730.27
  30
120
  0
VERTEX
  8
INDEX
  70
32
  10
1531888.00
  20
2798731.52
  30
120
  0
SEQEND
  8
INDEX
  0
POLYLINE
  8
INDEX
  70
8
  66
1
 62
0
 39
0
  0
VERTEX
  8
INDEX
  70
32
  10
1531888.00
  20
2798774.76
  30
120
  0
VERTEX
  8
INDEX
  70
32
  10
1531887.58
  20
2798777.37
  30
120
  0
VERTEX
  8
INDEX
  70
32
  10
1531887.42
  20
2798778.65
  30
120
  0
VERTEX
  8
INDEX
  70
32
  10
1531887.27
  20
2798780.54
  30
120
  0
VERTEX
  8
INDEX
  70
32
  10
1531887.22
  20
2798782.46
  30
120
  0
VERTEX
  8
INDEX
  70
32
  10
1531887.25
  20
2798784.38
  30
120
  0
VERTEX
  8
INDEX
  70
32
  10
1531887.33
  20
2798786.31
  30
120
  0
VERTEX
  8
INDEX
  70
32
  10
1531887.53
  20
2798789.27
  30
120
  0
VERTEX
  8
INDEX
  70
32
  10
1531888.00
  20
2798794.30
  30
120
  0
SEQEND
  8
INDEX
  0
POLYLINE
  8
INDEX
  70
8
  66
1
 62
0
 39
0
  0
VERTEX
  8
INDEX
  70
32
  10
1531888.00
  20
2798953.97
  30
120
  0
VERTEX
  8
INDEX
  70
32
  10
1531887.40
  20
2798956.13
  30
120
  0
VERTEX
  8
INDEX
  70
32
  10
1531886.54
  20
2798958.75
  30
120
  0
VERTEX
  8
INDEX
  70
32
  10
1531885.57
  20
2798961.39
  30
120
  0
VERTEX
  8
INDEX
  70
32
  10
1531885.11
  20
2798962.75
  30
120
  0
VERTEX
  8
INDEX
  70
32
  10
1531884.73
  20
2798964.20
  30
120
  0
VERTEX
  8
INDEX
  70
32
  10
1531884.45
  20
2798965.69
  30
120
  0
VERTEX
  8
INDEX
  70
32
  10
1531884.26
  20
2798967.19
  30
120
  0
VERTEX
  8
INDEX
  70
32
  10
1531884.16
  20
2798968.72
  30
120
  0
VERTEX
  8
INDEX
  70
32
  10
1531884.15
  20
2798970.34
  30
120
  0
VERTEX
  8
INDEX
  70
32
  10
1531884.26
  20
2798973.61
  30
120
  0
VERTEX
  8
INDEX
  70
32
  10
1531884.28
  20
2798974.97
  30
120
  0
VERTEX
  8
INDEX
  70
32
  10
1531884.18
  20
2798976.45
  30
120
  0
VERTEX
  8
INDEX
  70
32
  10
1531883.95
  20
2798978.01
  30
120
  0
VERTEX
  8
INDEX
  70
32
  10
1531883.45
  20
2798980.02
  30
120
  0
VERTEX
  8
INDEX
  70
32
  10
1531882.77
  20
2798982.03
  30
120
  0
VERTEX
  8
INDEX
  70
32
  10
1531882.24
  20
2798983.35
  30
120
  0
VERTEX
  8
INDEX
  70
32
  10
1531881.64
  20
2798984.61
  30
120
  0
VERTEX
  8
INDEX
  70
32
  10
1531880.80
  20
2798986.09
  30
120
  0
VERTEX
  8
INDEX
  70
32
  10
1531879.91
  20
2798987.39
  30
120
  0
VERTEX
  8
INDEX
  70
32
  10
1531879.01
  20
2798988.48
  30
120
  0
VERTEX
  8
INDEX
  70
32
  10
1531877.98
  20
2798989.52
  30
120
  0
VERTEX
  8
INDEX
  70
32
  10
1531877.22
  20
2798990.14
  30
120
  0
VERTEX
  8
INDEX
  70
32
  10
1531876.86
  20
2798990.31
  30
120
  0
SEQEND
  8
INDEX
  0
POLYLINE
  8
INTERMEDIATE
  70
8
  66
1
 62
0
 39
0
  0
VERTEX
  8
INTERMEDIATE
  70
32
  10
1531875.71
  20
2798961.82
  30
122
  0
VERTEX
  8
INTERMEDIATE
  70
32
  10
1531875.87
  20
2798959.00
  30
122
  0
VERTEX
  8
INTERMEDIATE
  70
32
  10
1531875.79
  20
2798958.47
  30
122
  0
VERTEX
  8
INTERMEDIATE
  70
32
  10
1531875.52
  20
2798957.25
  30
122
  0
SEQEND
  8
INTERMEDIATE
  0
POLYLINE
  8
INTERMEDIATE
  70
8
  66
1
 62
0
 39
0
  0
VERTEX
  8
INTERMEDIATE
  70
32
  10
1531875.19
  20
2798949.08
  30
122
  0
VERTEX
  8
INTERMEDIATE
  70
32
  10
1531875.24
  20
2798948.70
  30
122
  0
VERTEX
  8
INTERMEDIATE
  70
32
  10
1531875.56
  20
2798947.83
  30
122
  0
VERTEX
  8
INTERMEDIATE
  70
32
  10
1531875.97
  20
2798946.93
  30
122
  0
VERTEX
  8
INTERMEDIATE
  70
32
  10
1531876.50
  20
2798945.86
  30
122
  0
VERTEX
  8
INTERMEDIATE
  70
32
  10
1531878.02
  20
2798943.14
  30
122
  0
VERTEX
  8
INTERMEDIATE
  70
32
  10
1531878.83
  20
2798941.61
  30
122
  0
VERTEX
  8
INTERMEDIATE
  70
32
  10
1531879.56
  20
2798940.01
  30
122
  0
VERTEX
  8
INTERMEDIATE
  70
32
  10
1531880.24
  20
2798938.01
  30
122
  0
VERTEX
  8
INTERMEDIATE
  70
32
  10
1531880.73
  20
2798935.99
  30
122
  0
VERTEX
  8
INTERMEDIATE
  70
32
  10
1531881.10
  20
2798934.03
  30
122
  0
VERTEX
  8
INTERMEDIATE
  70
32
  10
1531882.01
  20
2798928.36
  30
122
  0
VERTEX
  8
INTERMEDIATE
  70
32
  10
1531882.27
  20
2798926.46
  30
122
  0
VERTEX
  8
INTERMEDIATE
  70
32
  10
1531882.46
  20
2798924.54
  30
122
  0
VERTEX
  8
INTERMEDIATE
  70
32
  10
1531882.66
  20
2798921.13
  30
122
  0
VERTEX
  8
INTERMEDIATE
  70
32
  10
1531883.14
  20
2798913.93
  30
122
  0
VERTEX
  8
INTERMEDIATE
  70
32
  10
1531883.45
  20
2798907.59
  30
122
  0
VERTEX
  8
INTERMEDIATE
  70
32
  10
1531883.65
  20
2798904.04
  30
122
  0
VERTEX
  8
INTERMEDIATE
  70
32
  10
1531883.80
  20
2798902.27
  30
122
  0
VERTEX
  8
INTERMEDIATE
  70
32
  10
1531884.00
  20
2798900.52
  30
122
  0
VERTEX
  8
INTERMEDIATE
  70
32
  10
1531884.27
  20
2798898.78
  30
122
  0
VERTEX
  8
INTERMEDIATE
  70
32
  10
1531884.65
  20
2798896.97
  30
122
  0
VERTEX
  8
INTERMEDIATE
  70
32
  10
1531885.09
  20
2798895.19
  30
122
  0
VERTEX
  8
INTERMEDIATE
  70
32
  10
1531887.86
  20
2798885.59
  30
122
  0
VERTEX
  8
INTERMEDIATE
  70
32
  10
1531888.00
  20
2798885.18
  30
122
  0
SEQEND
  8
INTERMEDIATE
  0
POLYLINE
  8
INTERMEDIATE
  70
8
  66
1
 62
0
 39
0
  0
VERTEX
  8
INTERMEDIATE
  70
32
  10
1531888.00
  20
2798823.37
  30
122
  0
VERTEX
  8
INTERMEDIATE
  70
32
  10
1531887.30
  20
2798820.91
  30
122
  0
VERTEX
  8
INTERMEDIATE
  70
32
  10
1531886.94
  20
2798819.43
  30
122
  0
VERTEX
  8
INTERMEDIATE
  70
32
  10
1531885.59
  20
2798812.98
  30
122
  0
VERTEX
  8
INTERMEDIATE
  70
32
  10
1531884.46
  20
2798808.35
  30
122
  0
VERTEX
  8
INTERMEDIATE
  70
32
  10
1531883.70
  20
2798804.96
  30
122
  0
VERTEX
  8
INTERMEDIATE
  70
32
  10
1531883.02
  20
2798801.55
  30
122
  0
VERTEX
  8
INTERMEDIATE
  70
32
  10
1531882.20
  20
2798797.01
  30
122
  0
VERTEX
  8
INTERMEDIATE
  70
32
  10
1531881.82
  20
2798795.17
  30
122
  0
VERTEX
  8
INTERMEDIATE
  70
32
  10
1531881.36
  20
2798793.37
  30
122
  0
VERTEX
  8
INTERMEDIATE
  70
32
  10
1531880.81
  20
2798791.63
  30
122
  0
VERTEX
  8
INTERMEDIATE
  70
32
  10
1531880.21
  20
2798790.17
  30
122
  0
VERTEX
  8
INTERMEDIATE
  70
32
  10
1531879.41
  20
2798788.66
  30
122
  0
VERTEX
  8
INTERMEDIATE
  70
32
  10
1531878.48
  20
2798787.12
  30
122
  0
VERTEX
  8
INTERMEDIATE
  70
32
  10
1531877.53
  20
2798785.68
  30
122
  0
VERTEX
  8
INTERMEDIATE
  70
32
  10
1531876.49
  20
2798784.32
  30
122
  0
VERTEX
  8
INTERMEDIATE
  70
32
  10
1531875.36
  20
2798783.12
  30
122
  0
VERTEX
  8
INTERMEDIATE
  70
32
  10
1531874.13
  20
2798782.12
  30
122
  0
VERTEX
  8
INTERMEDIATE
  70
32
  10
1531872.78
  20
2798781.33
  30
122
  0
VERTEX
  8
INTERMEDIATE
  70
32
  10
1531871.43
  20
2798780.78
  30
122
  0
VERTEX
  8
INTERMEDIATE
  70
32
  10
1531870.22
  20
2798780.44
  30
122
  0
VERTEX
  8
INTERMEDIATE
  70
32
  10
1531869.24
  20
2798780.27
  30
122
  0
VERTEX
  8
INTERMEDIATE
  70
32
  10
1531868.59
  20
2798780.24
  30
122
  0
VERTEX
  8
INTERMEDIATE
  70
32
  10
1531868.39
  20
2798780.29
  30
122
  0
SEQEND
  8
INTERMEDIATE
  0
POLYLINE
  8
INTERMEDIATE
  70
8
  66
1
 62
0
 39
0
  0
VERTEX
  8
INTERMEDIATE
  70
32
  10
1531867.55
  20
2798759.48
  30
122
  0
VERTEX
  8
INTERMEDIATE
  70
32
  10
1531868.43
  20
2798757.67
  30
122
  0
VERTEX
  8
INTERMEDIATE
  70
32
  10
1531868.54
  20
2798757.40
  30
122
  0
VERTEX
  8
INTERMEDIATE
  70
32
  10
1531868.58
  20
2798757.13
  30
122
  0
VERTEX
  8
INTERMEDIATE
  70
32
  10
1531868.51
  20
2798756.86
  30
122
  0
VERTEX
  8
INTERMEDIATE
  70
32
  10
1531868.38
  20
2798756.60
  30
122
  0
VERTEX
  8
INTERMEDIATE
  70
32
  10
1531867.37
  20
2798754.94
  30
122
  0
SEQEND
  8
INTERMEDIATE
  0
POLYLINE
  8
INTERMEDIATE
  70
8
  66
1
 62
0
 39
0
  0
VERTEX
  8
INTERMEDIATE
  70
32
  10
1531867.26
  20
2798752.28
  30
122
  0
VERTEX
  8
INTERMEDIATE
  70
32
  10
1531867.30
  20
2798752.06
  30
122
  0
VERTEX
  8
INTERMEDIATE
  70
32
  10
1531867.64
  20
2798751.66
  30
122
  0
VERTEX
  8
INTERMEDIATE
  70
32
  10
1531868.23
  20
2798751.12
  30
122
  0
VERTEX
  8
INTERMEDIATE
  70
32
  10
1531869.06
  20
2798750.49
  30
122
  0
VERTEX
  8
INTERMEDIATE
  70
32
  10
1531870.16
  20
2798749.77
  30
122
  0
VERTEX
  8
INTERMEDIATE
  70
32
  10
1531871.45
  20
2798749.03
  30
122
  0
VERTEX
  8
INTERMEDIATE
  70
32
  10
1531872.84
  20
2798748.30
  30
122
  0
VERTEX
  8
INTERMEDIATE
  70
32
  10
1531876.75
  20
2798746.34
  30
122
  0
VERTEX
  8
INTERMEDIATE
  70
32
  10
1531877.77
  20
2798745.74
  30
122
  0
VERTEX
  8
INTERMEDIATE
  70
32
  10
1531878.57
  20
2798745.13
  30
122
  0
VERTEX
  8
INTERMEDIATE
  70
32
  10
1531879.14
  20
2798744.48
  30
122
  0
VERTEX
  8
INTERMEDIATE
  70
32
  10
1531879.55
  20
2798743.69
  30
122
  0
VERTEX
  8
INTERMEDIATE
  70
32
  10
1531879.82
  20
2798742.81
  30
122
  0
VERTEX
  8
INTERMEDIATE
  70
32
  10
1531880.00
  20
2798741.86
  30
122
  0
VERTEX
  8
INTERMEDIATE
  70
32
  10
1531880.12
  20
2798740.86
  30
122
  0
VERTEX
  8
INTERMEDIATE
  70
32
  10
1531880.28
  20
2798738.96
  30
122
  0
VERTEX
  8
INTERMEDIATE
  70
32
  10
1531880.35
  20
2798737.22
  30
122
  0
VERTEX
  8
INTERMEDIATE
  70
32
  10
1531880.32
  20
2798736.44
  30
122
  0
VERTEX
  8
INTERMEDIATE
  70
32
  10
1531880.23
  20
2798735.67
  30
122
  0
VERTEX
  8
INTERMEDIATE
  70
32
  10
1531879.97
  20
2798734.49
  30
122
  0
VERTEX
  8
INTERMEDIATE
  70
32
  10
1531879.58
  20
2798733.31
  30
122
  0
VERTEX
  8
INTERMEDIATE
  70
32
  10
1531879.12
  20
2798732.13
  30
122
  0
VERTEX
  8
INTERMEDIATE
  70
32
  10
1531877.07
  20
2798727.52
  30
122
  0
VERTEX
  8
INTERMEDIATE
  70
32
  10
1531876.29
  20
2798725.51
  30
122
  0
VERTEX
  8
INTERMEDIATE
  70
32
  10
1531874.67
  20
2798720.56
  30
122
  0
VERTEX
  8
INTERMEDIATE
  70
32
  10
1531872.88
  20
2798715.37
  30
122
  0
VERTEX
  8
INTERMEDIATE
  70
32
  10
1531872.52
  20
2798714.19
  30
122
  0
VERTEX
  8
INTERMEDIATE
  70
32
  10
1531872.20
  20
2798713.01
  30
122
  0
VERTEX
  8
INTERMEDIATE
  70
32
  10
1531871.93
  20
2798711.83
  30
122
  0
VERTEX
  8
INTERMEDIATE
  70
32
  10
1531871.72
  20
2798710.65
  30
122
  0
VERTEX
  8
INTERMEDIATE
  70
32
  10
1531871.39
  20
2798707.74
  30
122
  0
VERTEX
  8
INTERMEDIATE
  70
32
  10
1531871.06
  20
2798705.60
  30
122
  0
VERTEX
  8
INTERMEDIATE
  70
32
  10
1531870.79
  20
2798704.45
  30
122
  0
VERTEX
  8
INTERMEDIATE
  70
32
  10
1531870.38
  20
2798703.12
  30
122
  0
VERTEX
  8
INTERMEDIATE
  70
32
  10
1531869.87
  20
2798701.73
  30
122
  0
VERTEX
  8
INTERMEDIATE
  70
32
  10
1531869.28
  20
2798700.31
  30
122
  0
VERTEX
  8
INTERMEDIATE
  70
32
  10
1531868.63
  20
2798698.92
  30
122
  0
VERTEX
  8
INTERMEDIATE
  70
32
  10
1531867.95
  20
2798697.58
  30
122
  0
VERTEX
  8
INTERMEDIATE
  70
32
  10
1531867.11
  20
2798696.09
  30
122
  0
VERTEX
  8
INTERMEDIATE
  70
32
  10
1531866.32
  20
2798694.82
  30
122
  0
VERTEX
  8
INTERMEDIATE
  70
32
  10
1531865.64
  20
2798693.84
  30
122
  0
VERTEX
  8
INTERMEDIATE
  70
32
  10
1531865.25
  20
2798693.35
  30
122
  0
VERTEX
  8
INTERMEDIATE
  70
32
  10
1531864.99
  20
2798693.06
  30
122
  0
VERTEX
  8
INTERMEDIATE
  70
32
  10
1531864.87
  20
2798692.97
  30
122
  0
SEQEND
  8
INTERMEDIATE
  0
POLYLINE
  8
INDEX
  70
8
  66
1
 62
0
 39
0
  0
VERTEX
  8
INDEX
  70
32
  10
1531888.00
  20
2798375.33
  30
120
  0
VERTEX
  8
INDEX
  70
32
  10
1531886.80
  20
2798376.77
  30
120
  0
VERTEX
  8
INDEX
  70
32
  10
1531885.79
  20
2798378.03
  30
120
  0
VERTEX
  8
INDEX
  70
32
  10
1531883.84
  20
2798380.60
  30
120
  0
VERTEX
  8
INDEX
  70
32
  10
1531881.95
  20
2798383.23
  30
120
  0
VERTEX
  8
INDEX
  70
32
  10
1531881.27
  20
2798384.23
  30
120
  0
VERTEX
  8
INDEX
  70
32
  10
1531880.63
  20
2798385.25
  30
120
  0
VERTEX
  8
INDEX
  70
32
  10
1531879.69
  20
2798386.87
  30
120
  0
VERTEX
  8
INDEX
  70
32
  10
1531878.82
  20
2798388.53
  30
120
  0
VERTEX
  8
INDEX
  70
32
  10
1531878.01
  20
2798390.20
  30
120
  0
VERTEX
  8
INDEX
  70
32
  10
1531877.25
  20
2798391.89
  30
120
  0
VERTEX
  8
INDEX
  70
32
  10
1531876.09
  20
2798394.70
  30
120
  0
VERTEX
  8
INDEX
  70
32
  10
1531875.69
  20
2798395.83
  30
120
  0
VERTEX
  8
INDEX
  70
32
  10
1531875.21
  20
2798397.45
  30
120
  0
VERTEX
  8
INDEX
  70
32
  10
1531874.34
  20
2798400.75
  30
120
  0
VERTEX
  8
INDEX
  70
32
  10
1531873.80
  20
2798402.51
  30
120
  0
VERTEX
  8
INDEX
  70
32
  10
1531873.19
  20
2798404.26
  30
120
  0
VERTEX
  8
INDEX
  70
32
  10
1531872.52
  20
2798405.99
  30
120
  0
VERTEX
  8
INDEX
  70
32
  10
1531871.79
  20
2798407.72
  30
120
  0
VERTEX
  8
INDEX
  70
32
  10
1531871.00
  20
2798409.42
  30
120
  0
VERTEX
  8
INDEX
  70
32
  10
1531870.27
  20
2798410.88
  30
120
  0
VERTEX
  8
INDEX
  70
32
  10
1531869.50
  20
2798412.32
  30
120
  0
VERTEX
  8
INDEX
  70
32
  10
1531868.68
  20
2798413.74
  30
120
  0
VERTEX
  8
INDEX
  70
32
  10
1531865.20
  20
2798419.39
  30
120
  0
VERTEX
  8
INDEX
  70
32
  10
1531863.19
  20
2798422.83
  30
120
  0
VERTEX
  8
INDEX
  70
32
  10
1531862.07
  20
2798424.88
  30
120
  0
VERTEX
  8
INDEX
  70
32
  10
1531859.04
  20
2798430.68
  30
120
  0
VERTEX
  8
INDEX
  70
32
  10
1531857.24
  20
2798433.93
  30
120
  0
VERTEX
  8
INDEX
  70
32
  10
1531855.54
  20
2798436.71
  30
120
  0
VERTEX
  8
INDEX
  70
32
  10
1531854.93
  20
2798437.61
  30
120
  0
VERTEX
  8
INDEX
  70
32
  10
1531854.59
  20
2798438.00
  30
120
  0
SEQEND
  8
INDEX
  0
POLYLINE
  8
INTERMEDIATE
  70
8
  66
1
 62
0
 39
0
  0
VERTEX
  8
INTERMEDIATE
  70
32
  10
1531854.29
  20
2798430.62
  30
122
  0
VERTEX
  8
INTERMEDIATE
  70
32
  10
1531854.61
  20
2798429.88
  30
122
  0
VERTEX
  8
INTERMEDIATE
  70
32
  10
1531856.92
  20
2798423.70
  30
122
  0
VERTEX
  8
INTERMEDIATE
  70
32
  10
1531857.83
  20
2798421.47
  30
122
  0
VERTEX
  8
INTERMEDIATE
  70
32
  10
1531858.86
  20
2798419.22
  30
122
  0
VERTEX
  8
INTERMEDIATE
  70
32
  10
1531859.59
  20
2798417.81
  30
122
  0
VERTEX
  8
INTERMEDIATE
  70
32
  10
1531860.33
  20
2798416.44
  30
122
  0
VERTEX
  8
INTERMEDIATE
  70
32
  10
1531861.40
  20
2798414.63
  30
122
  0
VERTEX
  8
INTERMEDIATE
  70
32
  10
1531863.30
  20
2798411.55
  30
122
  0
VERTEX
  8
INTERMEDIATE
  70
32
  10
1531864.17
  20
2798410.08
  30
122
  0
VERTEX
  8
INTERMEDIATE
  70
32
  10
1531865.00
  20
2798408.53
  30
122
  0
VERTEX
  8
INTERMEDIATE
  70
32
  10
1531865.75
  20
2798406.95
  30
122
  0
VERTEX
  8
INTERMEDIATE
  70
32
  10
1531866.42
  20
2798405.36
  30
122
  0
VERTEX
  8
INTERMEDIATE
  70
32
  10
1531866.98
  20
2798403.74
  30
122
  0
VERTEX
  8
INTERMEDIATE
  70
32
  10
1531867.40
  20
2798402.10
  30
122
  0
VERTEX
  8
INTERMEDIATE
  70
32
  10
1531867.56
  20
2798401.29
  30
122
  0
VERTEX
  8
INTERMEDIATE
  70
32
  10
1531867.70
  20
2798400.23
  30
122
  0
VERTEX
  8
INTERMEDIATE
  70
32
  10
1531867.98
  20
2798397.39
  30
122
  0
VERTEX
  8
INTERMEDIATE
  70
32
  10
1531868.19
  20
2798395.61
  30
122
  0
VERTEX
  8
INTERMEDIATE
  70
32
  10
1531868.51
  20
2798393.86
  30
122
  0
VERTEX
  8
INTERMEDIATE
  70
32
  10
1531868.99
  20
2798392.14
  30
122
  0
VERTEX
  8
INTERMEDIATE
  70
32
  10
1531869.47
  20
2798390.83
  30
122
  0
VERTEX
  8
INTERMEDIATE
  70
32
  10
1531870.03
  20
2798389.54
  30
122
  0
VERTEX
  8
INTERMEDIATE
  70
32
  10
1531870.67
  20
2798388.27
  30
122
  0
VERTEX
  8
INTERMEDIATE
  70
32
  10
1531871.35
  20
2798387.08
  30
122
  0
VERTEX
  8
INTERMEDIATE
  70
32
  10
1531872.10
  20
2798385.90
  30
122
  0
VERTEX
  8
INTERMEDIATE
  70
32
  10
1531873.49
  20
2798383.92
  30
122
  0
VERTEX
  8
INTERMEDIATE
  70
32
  10
1531875.24
  20
2798381.70
  30
122
  0
VERTEX
  8
INTERMEDIATE
  70
32
  10
1531878.71
  20
2798377.62
  30
122
  0
VERTEX
  8
INTERMEDIATE
  70
32
  10
1531881.03
  20
2798374.73
  30
122
  0
VERTEX
  8
INTERMEDIATE
  70
32
  10
1531883.27
  20
2798371.75
  30
122
  0
VERTEX
  8
INTERMEDIATE
  70
32
  10
1531885.42
  20
2798368.72
  30
122
  0
VERTEX
  8
INTERMEDIATE
  70
32
  10
1531887.48
  20
2798365.57
  30
122
  0
VERTEX
  8
INTERMEDIATE
  70
32
  10
1531888.00
  20
2798364.72
  30
122
  0
SEQEND
  8
INTERMEDIATE
  0
POLYLINE
  8
INTERMEDIATE
  70
8
  66
1
 62
0
 39
0
  0
VERTEX
  8
INTERMEDIATE
  70
32
  10
1531873.65
  20
2798910.66
  30
124
  0
VERTEX
  8
INTERMEDIATE
  70
32
  10
1531873.70
  20
2798910.46
  30
124
  0
VERTEX
  8
INTERMEDIATE
  70
32
  10
1531873.75
  20
2798909.85
  30
124
  0
VERTEX
  8
INTERMEDIATE
  70
32
  10
1531873.97
  20
2798905.74
  30
124
  0
VERTEX
  8
INTERMEDIATE
  70
32
  10
1531874.10
  20
2798903.86
  30
124
  0
VERTEX
  8
INTERMEDIATE
  70
32
  10
1531874.33
  20
2798901.41
  30
124
  0
VERTEX
  8
INTERMEDIATE
  70
32
  10
1531874.64
  20
2798898.85
  30
124
  0
VERTEX
  8
INTERMEDIATE
  70
32
  10
1531875.01
  20
2798896.30
  30
124
  0
VERTEX
  8
INTERMEDIATE
  70
32
  10
1531875.42
  20
2798893.87
  30
124
  0
VERTEX
  8
INTERMEDIATE
  70
32
  10
1531875.83
  20
2798891.66
  30
124
  0
VERTEX
  8
INTERMEDIATE
  70
32
  10
1531876.24
  20
2798889.72
  30
124
  0
VERTEX
  8
INTERMEDIATE
  70
32
  10
1531877.06
  20
2798886.25
  30
124
  0
VERTEX
  8
INTERMEDIATE
  70
32
  10
1531877.98
  20
2798882.83
  30
124
  0
VERTEX
  8
INTERMEDIATE
  70
32
  10
1531878.83
  20
2798880.12
  30
124
  0
VERTEX
  8
INTERMEDIATE
  70
32
  10
1531879.31
  20
2798878.80
  30
124
  0
VERTEX
  8
INTERMEDIATE
  70
32
  10
1531879.94
  20
2798877.27
  30
124
  0
VERTEX
  8
INTERMEDIATE
  70
32
  10
1531880.63
  20
2798875.79
  30
124
  0
VERTEX
  8
INTERMEDIATE
  70
32
  10
1531881.40
  20
2798874.34
  30
124
  0
VERTEX
  8
INTERMEDIATE
  70
32
  10
1531882.39
  20
2798872.73
  30
124
  0
VERTEX
  8
INTERMEDIATE
  70
32
  10
1531883.48
  20
2798871.20
  30
124
  0
VERTEX
  8
INTERMEDIATE
  70
32
  10
1531884.67
  20
2798869.76
  30
124
  0
VERTEX
  8
INTERMEDIATE
  70
32
  10
1531885.71
  20
2798868.66
  30
124
  0
VERTEX
  8
INTERMEDIATE
  70
32
  10
1531887.85
  20
2798866.56
  30
124
  0
VERTEX
  8
INTERMEDIATE
  70
32
  10
1531888.00
  20
2798866.41
  30
124
  0
SEQEND
  8
INTERMEDIATE
  0
POLYLINE
  8
INTERMEDIATE
  70
8
  66
1
 62
0
 39
0
  0
VERTEX
  8
INTERMEDIATE
  70
32
  10
1531888.00
  20
2798837.39
  30
124
  0
VERTEX
  8
INTERMEDIATE
  70
32
  10
1531887.81
  20
2798837.08
  30
124
  0
VERTEX
  8
INTERMEDIATE
  70
32
  10
1531886.58
  20
2798835.22
  30
124
  0
VERTEX
  8
INTERMEDIATE
  70
32
  10
1531885.87
  20
2798834.07
  30
124
  0
VERTEX
  8
INTERMEDIATE
  70
32
  10
1531885.10
  20
2798832.58
  30
124
  0
VERTEX
  8
INTERMEDIATE
  70
32
  10
1531884.41
  20
2798831.02
  30
124
  0
VERTEX
  8
INTERMEDIATE
  70
32
  10
1531882.54
  20
2798826.31
  30
124
  0
VERTEX
  8
INTERMEDIATE
  70
32
  10
1531880.59
  20
2798821.78
  30
124
  0
VERTEX
  8
INTERMEDIATE
  70
32
  10
1531880.03
  20
2798820.29
  30
124
  0
VERTEX
  8
INTERMEDIATE
  70
32
  10
1531879.56
  20
2798818.87
  30
124
  0
VERTEX
  8
INTERMEDIATE
  70
32
  10
1531879.15
  20
2798817.43
  30
124
  0
VERTEX
  8
INTERMEDIATE
  70
32
  10
1531878.79
  20
2798815.97
  30
124
  0
VERTEX
  8
INTERMEDIATE
  70
32
  10
1531878.44
  20
2798814.18
  30
124
  0
VERTEX
  8
INTERMEDIATE
  70
32
  10
1531877.58
  20
2798808.94
  30
124
  0
VERTEX
  8
INTERMEDIATE
  70
32
  10
1531877.21
  20
2798807.19
  30
124
  0
VERTEX
  8
INTERMEDIATE
  70
32
  10
1531876.71
  20
2798805.30
  30
124
  0
VERTEX
  8
INTERMEDIATE
  70
32
  10
1531876.08
  20
2798803.35
  30
124
  0
VERTEX
  8
INTERMEDIATE
  70
32
  10
1531875.32
  20
2798801.40
  30
124
  0
VERTEX
  8
INTERMEDIATE
  70
32
  10
1531874.40
  20
2798799.41
  30
124
  0
VERTEX
  8
INTERMEDIATE
  70
32
  10
1531873.38
  20
2798797.59
  30
124
  0
VERTEX
  8
INTERMEDIATE
  70
32
  10
1531872.32
  20
2798796.01
  30
124
  0
VERTEX
  8
INTERMEDIATE
  70
32
  10
1531871.21
  20
2798794.68
  30
124
  0
VERTEX
  8
INTERMEDIATE
  70
32
  10
1531870.21
  20
2798793.73
  30
124
  0
VERTEX
  8
INTERMEDIATE
  70
32
  10
1531869.42
  20
2798793.20
  30
124
  0
VERTEX
  8
INTERMEDIATE
  70
32
  10
1531869.09
  20
2798793.08
  30
124
  0
VERTEX
  8
INTERMEDIATE
  70
32
  10
1531868.91
  20
2798793.13
  30
124
  0
SEQEND
  8
INTERMEDIATE
  0
POLYLINE
  8
INTERMEDIATE
  70
8
  66
1
 62
0
 39
0
  0
VERTEX
  8
INTERMEDIATE
  70
32
  10
1531853.61
  20
2798413.64
  30
124
  0
VERTEX
  8
INTERMEDIATE
  70
32
  10
1531853.90
  20
2798413.43
  30
124
  0
VERTEX
  8
INTERMEDIATE
  70
32
  10
1531854.53
  20
2798412.76
  30
124
  0
VERTEX
  8
INTERMEDIATE
  70
32
  10
1531855.43
  20
2798411.69
  30
124
  0
VERTEX
  8
INTERMEDIATE
  70
32
  10
1531856.48
  20
2798410.28
  30
124
  0
VERTEX
  8
INTERMEDIATE
  70
32
  10
1531857.10
  20
2798409.34
  30
124
  0
VERTEX
  8
INTERMEDIATE
  70
32
  10
1531857.73
  20
2798408.32
  30
124
  0
VERTEX
  8
INTERMEDIATE
  70
32
  10
1531858.50
  20
2798406.89
  30
124
  0
VERTEX
  8
INTERMEDIATE
  70
32
  10
1531859.21
  20
2798405.37
  30
124
  0
VERTEX
  8
INTERMEDIATE
  70
32
  10
1531859.98
  20
2798403.35
  30
124
  0
VERTEX
  8
INTERMEDIATE
  70
32
  10
1531860.58
  20
2798401.31
  30
124
  0
VERTEX
  8
INTERMEDIATE
  70
32
  10
1531860.95
  20
2798399.66
  30
124
  0
VERTEX
  8
INTERMEDIATE
  70
32
  10
1531861.55
  20
2798396.42
  30
124
  0
VERTEX
  8
INTERMEDIATE
  70
32
  10
1531861.90
  20
2798394.82
  30
124
  0
VERTEX
  8
INTERMEDIATE
  70
32
  10
1531862.41
  20
2798393.12
  30
124
  0
VERTEX
  8
INTERMEDIATE
  70
32
  10
1531862.98
  20
2798391.54
  30
124
  0
VERTEX
  8
INTERMEDIATE
  70
32
  10
1531863.63
  20
2798389.96
  30
124
  0
VERTEX
  8
INTERMEDIATE
  70
32
  10
1531864.33
  20
2798388.41
  30
124
  0
VERTEX
  8
INTERMEDIATE
  70
32
  10
1531865.09
  20
2798386.87
  30
124
  0
VERTEX
  8
INTERMEDIATE
  70
32
  10
1531865.90
  20
2798385.35
  30
124
  0
VERTEX
  8
INTERMEDIATE
  70
32
  10
1531866.76
  20
2798383.86
  30
124
  0
VERTEX
  8
INTERMEDIATE
  70
32
  10
1531867.68
  20
2798382.41
  30
124
  0
VERTEX
  8
INTERMEDIATE
  70
32
  10
1531868.52
  20
2798381.21
  30
124
  0
VERTEX
  8
INTERMEDIATE
  70
32
  10
1531869.39
  20
2798380.03
  30
124
  0
VERTEX
  8
INTERMEDIATE
  70
32
  10
1531870.36
  20
2798378.83
  30
124
  0
VERTEX
  8
INTERMEDIATE
  70
32
  10
1531873.34
  20
2798375.27
  30
124
  0
VERTEX
  8
INTERMEDIATE
  70
32
  10
1531874.76
  20
2798373.50
  30
124
  0
VERTEX
  8
INTERMEDIATE
  70
32
  10
1531876.18
  20
2798371.51
  30
124
  0
VERTEX
  8
INTERMEDIATE
  70
32
  10
1531877.17
  20
2798369.95
  30
124
  0
VERTEX
  8
INTERMEDIATE
  70
32
  10
1531878.08
  20
2798368.35
  30
124
  0
VERTEX
  8
INTERMEDIATE
  70
32
  10
1531878.78
  20
2798366.98
  30
124
  0
VERTEX
  8
INTERMEDIATE
  70
32
  10
1531879.44
  20
2798365.59
  30
124
  0
VERTEX
  8
INTERMEDIATE
  70
32
  10
1531881.48
  20
2798361.08
  30
124
  0
VERTEX
  8
INTERMEDIATE
  70
32
  10
1531882.67
  20
2798358.21
  30
124
  0
VERTEX
  8
INTERMEDIATE
  70
32
  10
1531884.87
  20
2798352.62
  30
124
  0
VERTEX
  8
INTERMEDIATE
  70
32
  10
1531886.07
  20
2798349.45
  30
124
  0
VERTEX
  8
INTERMEDIATE
  70
32
  10
1531888.00
  20
2798344.09
  30
124
  0
SEQEND
  8
INTERMEDIATE
  0
POLYLINE
  8
INTERMEDIATE
  70
8
  66
1
 62
0
 39
0
  0
VERTEX
  8
INTERMEDIATE
  70
32
  10
1531869.55
  20
2798809.13
  30
126
  0
VERTEX
  8
INTERMEDIATE
  70
32
  10
1531870.60
  20
2798810.76
  30
126
  0
VERTEX
  8
INTERMEDIATE
  70
32
  10
1531871.67
  20
2798812.61
  30
126
  0
VERTEX
  8
INTERMEDIATE
  70
32
  10
1531872.26
  20
2798813.70
  30
126
  0
VERTEX
  8
INTERMEDIATE
  70
32
  10
1531872.91
  20
2798815.05
  30
126
  0
VERTEX
  8
INTERMEDIATE
  70
32
  10
1531873.54
  20
2798816.45
  30
126
  0
VERTEX
  8
INTERMEDIATE
  70
32
  10
1531874.12
  20
2798817.86
  30
126
  0
VERTEX
  8
INTERMEDIATE
  70
32
  10
1531875.09
  20
2798820.49
  30
126
  0
VERTEX
  8
INTERMEDIATE
  70
32
  10
1531875.48
  20
2798821.69
  30
126
  0
VERTEX
  8
INTERMEDIATE
  70
32
  10
1531875.80
  20
2798822.85
  30
126
  0
VERTEX
  8
INTERMEDIATE
  70
32
  10
1531876.06
  20
2798824.02
  30
126
  0
VERTEX
  8
INTERMEDIATE
  70
32
  10
1531876.36
  20
2798826.08
  30
126
  0
VERTEX
  8
INTERMEDIATE
  70
32
  10
1531876.83
  20
2798830.44
  30
126
  0
VERTEX
  8
INTERMEDIATE
  70
32
  10
1531877.05
  20
2798832.64
  30
126
  0
VERTEX
  8
INTERMEDIATE
  70
32
  10
1531877.24
  20
2798835.13
  30
126
  0
VERTEX
  8
INTERMEDIATE
  70
32
  10
1531877.31
  20
2798837.19
  30
126
  0
VERTEX
  8
INTERMEDIATE
  70
32
  10
1531877.27
  20
2798838.25
  30
126
  0
VERTEX
  8
INTERMEDIATE
  70
32
  10
1531876.99
  20
2798841.35
  30
126
  0
VERTEX
  8
INTERMEDIATE
  70
32
  10
1531876.96
  20
2798842.32
  30
126
  0
VERTEX
  8
INTERMEDIATE
  70
32
  10
1531877.02
  20
2798843.24
  30
126
  0
VERTEX
  8
INTERMEDIATE
  70
32
  10
1531877.17
  20
2798843.97
  30
126
  0
VERTEX
  8
INTERMEDIATE
  70
32
  10
1531877.59
  20
2798845.62
  30
126
  0
VERTEX
  8
INTERMEDIATE
  70
32
  10
1531878.55
  20
2798849.71
  30
126
  0
VERTEX
  8
INTERMEDIATE
  70
32
  10
1531879.76
  20
2798854.17
  30
126
  0
VERTEX
  8
INTERMEDIATE
  70
32
  10
1531879.98
  20
2798855.23
  30
126
  0
VERTEX
  8
INTERMEDIATE
  70
32
  10
1531880.12
  20
2798856.25
  30
126
  0
VERTEX
  8
INTERMEDIATE
  70
32
  10
1531880.14
  20
2798857.23
  30
126
  0
VERTEX
  8
INTERMEDIATE
  70
32
  10
1531879.96
  20
2798858.16
  30
126
  0
VERTEX
  8
INTERMEDIATE
  70
32
  10
1531879.37
  20
2798859.21
  30
126
  0
VERTEX
  8
INTERMEDIATE
  70
32
  10
1531878.45
  20
2798860.28
  30
126
  0
VERTEX
  8
INTERMEDIATE
  70
32
  10
1531877.30
  20
2798861.35
  30
126
  0
VERTEX
  8
INTERMEDIATE
  70
32
  10
1531874.84
  20
2798863.43
  30
126
  0
VERTEX
  8
INTERMEDIATE
  70
32
  10
1531873.73
  20
2798864.39
  30
126
  0
VERTEX
  8
INTERMEDIATE
  70
32
  10
1531872.91
  20
2798865.18
  30
126
  0
VERTEX
  8
INTERMEDIATE
  70
32
  10
1531872.29
  20
2798865.83
  30
126
  0
VERTEX
  8
INTERMEDIATE
  70
32
  10
1531871.93
  20
2798866.29
  30
126
  0
VERTEX
  8
INTERMEDIATE
  70
32
  10
1531871.86
  20
2798866.50
  30
126
  0
SEQEND
  8
INTERMEDIATE
  0
POLYLINE
  8
INTERMEDIATE
  70
8
  66
1
 62
0
 39
0
  0
VERTEX
  8
INTERMEDIATE
  70
32
  10
1531888.00
  20
2798304.72
  30
126
  0
VERTEX
  8
INTERMEDIATE
  70
32
  10
1531886.40
  20
2798307.30
  30
126
  0
VERTEX
  8
INTERMEDIATE
  70
32
  10
1531885.01
  20
2798309.62
  30
126
  0
VERTEX
  8
INTERMEDIATE
  70
32
  10
1531884.29
  20
2798310.70
  30
126
  0
VERTEX
  8
INTERMEDIATE
  70
32
  10
1531883.52
  20
2798311.69
  30
126
  0
VERTEX
  8
INTERMEDIATE
  70
32
  10
1531882.61
  20
2798312.62
  30
126
  0
VERTEX
  8
INTERMEDIATE
  70
32
  10
1531880.70
  20
2798314.34
  30
126
  0
VERTEX
  8
INTERMEDIATE
  70
32
  10
1531879.80
  20
2798315.27
  30
126
  0
VERTEX
  8
INTERMEDIATE
  70
32
  10
1531878.88
  20
2798316.50
  30
126
  0
VERTEX
  8
INTERMEDIATE
  70
32
  10
1531878.11
  20
2798317.87
  30
126
  0
VERTEX
  8
INTERMEDIATE
  70
32
  10
1531877.48
  20
2798319.36
  30
126
  0
VERTEX
  8
INTERMEDIATE
  70
32
  10
1531876.99
  20
2798320.93
  30
126
  0
VERTEX
  8
INTERMEDIATE
  70
32
  10
1531876.66
  20
2798322.58
  30
126
  0
VERTEX
  8
INTERMEDIATE
  70
32
  10
1531876.51
  20
2798324.20
  30
126
  0
VERTEX
  8
INTERMEDIATE
  70
32
  10
1531876.48
  20
2798325.86
  30
126
  0
VERTEX
  8
INTERMEDIATE
  70
32
  10
1531876.74
  20
2798332.68
  30
126
  0
VERTEX
  8
INTERMEDIATE
  70
32
  10
1531876.72
  20
2798334.38
  30
126
  0
VERTEX
  8
INTERMEDIATE
  70
32
  10
1531876.62
  20
2798335.70
  30
126
  0
VERTEX
  8
INTERMEDIATE
  70
32
  10
1531876.45
  20
2798337.00
  30
126
  0
VERTEX
  8
INTERMEDIATE
  70
32
  10
1531876.18
  20
2798338.28
  30
126
  0
VERTEX
  8
INTERMEDIATE
  70
32
  10
1531875.79
  20
2798339.67
  30
126
  0
VERTEX
  8
INTERMEDIATE
  70
32
  10
1531875.30
  20
2798341.03
  30
126
  0
VERTEX
  8
INTERMEDIATE
  70
32
  10
1531874.75
  20
2798342.35
  30
126
  0
VERTEX
  8
INTERMEDIATE
  70
32
  10
1531874.14
  20
2798343.63
  30
126
  0
VERTEX
  8
INTERMEDIATE
  70
32
  10
1531873.45
  20
2798344.86
  30
126
  0
VERTEX
  8
INTERMEDIATE
  70
32
  10
1531872.61
  20
2798346.12
  30
126
  0
VERTEX
  8
INTERMEDIATE
  70
32
  10
1531871.67
  20
2798347.31
  30
126
  0
VERTEX
  8
INTERMEDIATE
  70
32
  10
1531870.66
  20
2798348.42
  30
126
  0
VERTEX
  8
INTERMEDIATE
  70
32
  10
1531869.50
  20
2798349.50
  30
126
  0
VERTEX
  8
INTERMEDIATE
  70
32
  10
1531865.97
  20
2798352.52
  30
126
  0
VERTEX
  8
INTERMEDIATE
  70
32
  10
1531864.92
  20
2798353.56
  30
126
  0
VERTEX
  8
INTERMEDIATE
  70
32
  10
1531864.05
  20
2798354.63
  30
126
  0
VERTEX
  8
INTERMEDIATE
  70
32
  10
1531863.35
  20
2798355.77
  30
126
  0
VERTEX
  8
INTERMEDIATE
  70
32
  10
1531862.87
  20
2798356.98
  30
126
  0
VERTEX
  8
INTERMEDIATE
  70
32
  10
1531862.70
  20
2798357.81
  30
126
  0
VERTEX
  8
INTERMEDIATE
  70
32
  10
1531862.60
  20
2798359.25
  30
126
  0
VERTEX
  8
INTERMEDIATE
  70
32
  10
1531862.67
  20
2798360.59
  30
126
  0
VERTEX
  8
INTERMEDIATE
  70
32
  10
1531863.20
  20
2798364.86
  30
126
  0
VERTEX
  8
INTERMEDIATE
  70
32
  10
1531863.32
  20
2798366.24
  30
126
  0
VERTEX
  8
INTERMEDIATE
  70
32
  10
1531863.38
  20
2798367.64
  30
126
  0
VERTEX
  8
INTERMEDIATE
  70
32
  10
1531863.34
  20
2798369.04
  30
126
  0
VERTEX
  8
INTERMEDIATE
  70
32
  10
1531863.14
  20
2798370.76
  30
126
  0
VERTEX
  8
INTERMEDIATE
  70
32
  10
1531862.81
  20
2798372.48
  30
126
  0
VERTEX
  8
INTERMEDIATE
  70
32
  10
1531862.39
  20
2798374.19
  30
126
  0
VERTEX
  8
INTERMEDIATE
  70
32
  10
1531860.04
  20
2798382.66
  30
126
  0
VERTEX
  8
INTERMEDIATE
  70
32
  10
1531859.55
  20
2798384.14
  30
126
  0
VERTEX
  8
INTERMEDIATE
  70
32
  10
1531857.82
  20
2798389.06
  30
126
  0
VERTEX
  8
INTERMEDIATE
  70
32
  10
1531857.18
  20
2798391.05
  30
126
  0
VERTEX
  8
INTERMEDIATE
  70
32
  10
1531856.09
  20
2798394.82
  30
126
  0
VERTEX
  8
INTERMEDIATE
  70
32
  10
1531854.60
  20
2798400.52
  30
126
  0
VERTEX
  8
INTERMEDIATE
  70
32
  10
1531854.16
  20
2798402.07
  30
126
  0
VERTEX
  8
INTERMEDIATE
  70
32
  10
1531853.57
  20
2798403.88
  30
126
  0
VERTEX
  8
INTERMEDIATE
  70
32
  10
1531853.40
  20
2798404.29
  30
126
  0
VERTEX
  8
INTERMEDIATE
  70
32
  10
1531853.24
  20
2798404.50
  30
126
  0
SEQEND
  8
INTERMEDIATE
  0
POLYLINE
  8
INTERMEDIATE
  70
8
  66
1
 62
0
 39
0
  0
VERTEX
  8
INTERMEDIATE
  70
32
  10
1531888.00
  20
2798290.68
  30
128
  0
VERTEX
  8
INTERMEDIATE
  70
32
  10
1531886.67
  20
2798291.49
  30
128
  0
VERTEX
  8
INTERMEDIATE
  70
32
  10
1531885.42
  20
2798292.17
  30
128
  0
VERTEX
  8
INTERMEDIATE
  70
32
  10
1531884.13
  20
2798292.67
  30
128
  0
VERTEX
  8
INTERMEDIATE
  70
32
  10
1531882.76
  20
2798292.94
  30
128
  0
VERTEX
  8
INTERMEDIATE
  70
32
  10
1531881.31
  20
2798293.04
  30
128
  0
VERTEX
  8
INTERMEDIATE
  70
32
  10
1531878.22
  20
2798293.08
  30
128
  0
VERTEX
  8
INTERMEDIATE
  70
32
  10
1531876.72
  20
2798293.18
  30
128
  0
VERTEX
  8
INTERMEDIATE
  70
32
  10
1531875.20
  20
2798293.37
  30
128
  0
VERTEX
  8
INTERMEDIATE
  70
32
  10
1531873.68
  20
2798293.64
  30
128
  0
VERTEX
  8
INTERMEDIATE
  70
32
  10
1531872.15
  20
2798294.00
  30
128
  0
VERTEX
  8
INTERMEDIATE
  70
32
  10
1531870.65
  20
2798294.48
  30
128
  0
VERTEX
  8
INTERMEDIATE
  70
32
  10
1531868.99
  20
2798295.16
  30
128
  0
VERTEX
  8
INTERMEDIATE
  70
32
  10
1531867.36
  20
2798295.97
  30
128
  0
VERTEX
  8
INTERMEDIATE
  70
32
  10
1531865.78
  20
2798296.88
  30
128
  0
VERTEX
  8
INTERMEDIATE
  70
32
  10
1531864.24
  20
2798297.87
  30
128
  0
VERTEX
  8
INTERMEDIATE
  70
32
  10
1531862.74
  20
2798298.91
  30
128
  0
VERTEX
  8
INTERMEDIATE
  70
32
  10
1531861.31
  20
2798300.01
  30
128
  0
VERTEX
  8
INTERMEDIATE
  70
32
  10
1531860.22
  20
2798300.91
  30
128
  0
VERTEX
  8
INTERMEDIATE
  70
32
  10
1531859.20
  20
2798301.83
  30
128
  0
VERTEX
  8
INTERMEDIATE
  70
32
  10
1531858.24
  20
2798302.77
  30
128
  0
VERTEX
  8
INTERMEDIATE
  70
32
  10
1531857.19
  20
2798303.95
  30
128
  0
VERTEX
  8
INTERMEDIATE
  70
32
  10
1531856.34
  20
2798305.22
  30
128
  0
VERTEX
  8
INTERMEDIATE
  70
32
  10
1531855.81
  20
2798306.45
  30
128
  0
VERTEX
  8
INTERMEDIATE
  70
32
  10
1531855.45
  20
2798307.79
  30
128
  0
VERTEX
  8
INTERMEDIATE
  70
32
  10
1531855.15
  20
2798309.36
  30
128
  0
VERTEX
  8
INTERMEDIATE
  70
32
  10
1531854.55
  20
2798313.24
  30
128
  0
VERTEX
  8
INTERMEDIATE
  70
32
  10
1531854.17
  20
2798315.29
  30
128
  0
VERTEX
  8
INTERMEDIATE
  70
32
  10
1531853.69
  20
2798317.31
  30
128
  0
VERTEX
  8
INTERMEDIATE
  70
32
  10
1531852.98
  20
2798319.51
  30
128
  0
VERTEX
  8
INTERMEDIATE
  70
32
  10
1531852.18
  20
2798321.45
  30
128
  0
VERTEX
  8
INTERMEDIATE
  70
32
  10
1531851.38
  20
2798323.01
  30
128
  0
VERTEX
  8
INTERMEDIATE
  70
32
  10
1531850.78
  20
2798323.95
  30
128
  0
VERTEX
  8
INTERMEDIATE
  70
32
  10
1531850.30
  20
2798324.52
  30
128
  0
VERTEX
  8
INTERMEDIATE
  70
32
  10
1531850.02
  20
2798324.66
  30
128
  0
SEQEND
  8
INTERMEDIATE
  0
POLYLINE
  8
INDEX
  70
8
  66
1
 62
0
 39
0
  0
VERTEX
  8
INDEX
  70
32
  10
1531888.00
  20
2798281.15
  30
130
  0
VERTEX
  8
INDEX
  70
32
  10
1531886.94
  20
2798281.49
  30
130
  0
VERTEX
  8
INDEX
  70
32
  10
1531885.79
  20
2798281.80
  30
130
  0
VERTEX
  8
INDEX
  70
32
  10
1531884.24
  20
2798282.14
  30
130
  0
VERTEX
  8
INDEX
  70
32
  10
1531882.67
  20
2798282.43
  30
130
  0
VERTEX
  8
INDEX
  70
32
  10
1531875.56
  20
2798283.64
  30
130
  0
VERTEX
  8
INDEX
  70
32
  10
1531871.81
  20
2798284.34
  30
130
  0
VERTEX
  8
INDEX
  70
32
  10
1531869.90
  20
2798284.74
  30
130
  0
VERTEX
  8
INDEX
  70
32
  10
1531868.03
  20
2798285.20
  30
130
  0
VERTEX
  8
INDEX
  70
32
  10
1531866.19
  20
2798285.77
  30
130
  0
VERTEX
  8
INDEX
  70
32
  10
1531864.48
  20
2798286.43
  30
130
  0
VERTEX
  8
INDEX
  70
32
  10
1531862.62
  20
2798287.29
  30
130
  0
VERTEX
  8
INDEX
  70
32
  10
1531860.73
  20
2798288.27
  30
130
  0
VERTEX
  8
INDEX
  70
32
  10
1531855.06
  20
2798291.42
  30
130
  0
VERTEX
  8
INDEX
  70
32
  10
1531853.20
  20
2798292.40
  30
130
  0
VERTEX
  8
INDEX
  70
32
  10
1531850.22
  20
2798293.89
  30
130
  0
VERTEX
  8
INDEX
  70
32
  10
1531849.29
  20
2798294.33
  30
130
  0
VERTEX
  8
INDEX
  70
32
  10
1531848.81
  20
2798294.52
  30
130
  0
SEQEND
  8
INDEX
  0
POLYLINE
  8
INDEX
  70
8
  66
1
 62
0
 39
0
  0
VERTEX
  8
INDEX
  70
32
  10
1531829.48
  20
2797815.11
  30
130
  0
VERTEX
  8
INDEX
  70
32
  10
1531829.69
  20
2797815.11
  30
130
  0
VERTEX
  8
INDEX
  70
32
  10
1531830.03
  20
2797814.97
  30
130
  0
VERTEX
  8
INDEX
  70
32
  10
1531830.43
  20
2797814.68
  30
130
  0
VERTEX
  8
INDEX
  70
32
  10
1531830.83
  20
2797814.24
  30
130
  0
VERTEX
  8
INDEX
  70
32
  10
1531831.20
  20
2797813.52
  30
130
  0
VERTEX
  8
INDEX
  70
32
  10
1531831.43
  20
2797812.62
  30
130
  0
VERTEX
  8
INDEX
  70
32
  10
1531831.54
  20
2797811.59
  30
130
  0
VERTEX
  8
INDEX
  70
32
  10
1531831.54
  20
2797810.47
  30
130
  0
VERTEX
  8
INDEX
  70
32
  10
1531831.45
  20
2797809.35
  30
130
  0
VERTEX
  8
INDEX
  70
32
  10
1531831.30
  20
2797808.27
  30
130
  0
VERTEX
  8
INDEX
  70
32
  10
1531830.89
  20
2797805.88
  30
130
  0
VERTEX
  8
INDEX
  70
32
  10
1531830.80
  20
2797805.17
  30
130
  0
VERTEX
  8
INDEX
  70
32
  10
1531830.71
  20
2797803.80
  30
130
  0
VERTEX
  8
INDEX
  70
32
  10
1531830.53
  20
2797800.04
  30
130
  0
VERTEX
  8
INDEX
  70
32
  10
1531830.47
  20
2797798.16
  30
130
  0
VERTEX
  8
INDEX
  70
32
  10
1531830.49
  20
2797796.33
  30
130
  0
VERTEX
  8
INDEX
  70
32
  10
1531830.54
  20
2797795.44
  30
130
  0
VERTEX
  8
INDEX
  70
32
  10
1531830.64
  20
2797794.59
  30
130
  0
VERTEX
  8
INDEX
  70
32
  10
1531830.81
  20
2797793.79
  30
130
  0
VERTEX
  8
INDEX
  70
32
  10
1531831.07
  20
2797793.06
  30
130
  0
VERTEX
  8
INDEX
  70
32
  10
1531831.45
  20
2797792.42
  30
130
  0
VERTEX
  8
INDEX
  70
32
  10
1531831.98
  20
2797791.88
  30
130
  0
VERTEX
  8
INDEX
  70
32
  10
1531832.63
  20
2797791.44
  30
130
  0
VERTEX
  8
INDEX
  70
32
  10
1531833.36
  20
2797791.06
  30
130
  0
VERTEX
  8
INDEX
  70
32
  10
1531834.15
  20
2797790.72
  30
130
  0
VERTEX
  8
INDEX
  70
32
  10
1531836.36
  20
2797789.87
  30
130
  0
VERTEX
  8
INDEX
  70
32
  10
1531837.45
  20
2797789.39
  30
130
  0
VERTEX
  8
INDEX
  70
32
  10
1531838.02
  20
2797789.09
  30
130
  0
VERTEX
  8
INDEX
  70
32
  10
1531838.44
  20
2797788.78
  30
130
  0
VERTEX
  8
INDEX
  70
32
  10
1531838.65
  20
2797788.46
  30
130
  0
VERTEX
  8
INDEX
  70
32
  10
1531838.60
  20
2797788.13
  30
130
  0
VERTEX
  8
INDEX
  70
32
  10
1531838.31
  20
2797787.79
  30
130
  0
VERTEX
  8
INDEX
  70
32
  10
1531837.84
  20
2797787.44
  30
130
  0
VERTEX
  8
INDEX
  70
32
  10
1531837.20
  20
2797787.08
  30
130
  0
VERTEX
  8
INDEX
  70
32
  10
1531836.32
  20
2797786.69
  30
130
  0
VERTEX
  8
INDEX
  70
32
  10
1531835.18
  20
2797786.27
  30
130
  0
VERTEX
  8
INDEX
  70
32
  10
1531833.93
  20
2797785.87
  30
130
  0
VERTEX
  8
INDEX
  70
32
  10
1531832.63
  20
2797785.51
  30
130
  0
VERTEX
  8
INDEX
  70
32
  10
1531831.37
  20
2797785.20
  30
130
  0
VERTEX
  8
INDEX
  70
32
  10
1531830.22
  20
2797784.97
  30
130
  0
VERTEX
  8
INDEX
  70
32
  10
1531829.40
  20
2797784.84
  30
130
  0
VERTEX
  8
INDEX
  70
32
  10
1531828.76
  20
2797784.76
  30
130
  0
VERTEX
  8
INDEX
  70
32
  10
1531828.25
  20
2797784.74
  30
130
  0
SEQEND
  8
INDEX
  0
POLYLINE
  8
INDEX
  70
8
  66
1
 62
0
 39
0
  0
VERTEX
  8
INDEX
  70
32
  10
1531827.79
  20
2797773.33
  30
130
  0
VERTEX
  8
INDEX
  70
32
  10
1531830.76
  20
2797771.97
  30
130
  0
VERTEX
  8
INDEX
  70
32
  10
1531831.90
  20
2797771.40
  30
130
  0
VERTEX
  8
INDEX
  70
32
  10
1531832.38
  20
2797771.09
  30
130
  0
VERTEX
  8
INDEX
  70
32
  10
1531832.58
  20
2797770.92
  30
130
  0
VERTEX
  8
INDEX
  70
32
  10
1531832.74
  20
2797770.73
  30
130
  0
VERTEX
  8
INDEX
  70
32
  10
1531832.85
  20
2797770.52
  30
130
  0
VERTEX
  8
INDEX
  70
32
  10
1531832.89
  20
2797770.28
  30
130
  0
VERTEX
  8
INDEX
  70
32
  10
1531832.82
  20
2797769.74
  30
130
  0
VERTEX
  8
INDEX
  70
32
  10
1531832.62
  20
2797769.15
  30
130
  0
VERTEX
  8
INDEX
  70
32
  10
1531832.37
  20
2797768.54
  30
130
  0
VERTEX
  8
INDEX
  70
32
  10
1531830.84
  20
2797765.13
  30
130
  0
VERTEX
  8
INDEX
  70
32
  10
1531830.54
  20
2797764.55
  30
130
  0
VERTEX
  8
INDEX
  70
32
  10
1531830.22
  20
2797764.04
  30
130
  0
VERTEX
  8
INDEX
  70
32
  10
1531830.01
  20
2797763.84
  30
130
  0
VERTEX
  8
INDEX
  70
32
  10
1531829.73
  20
2797763.70
  30
130
  0
VERTEX
  8
INDEX
  70
32
  10
1531829.39
  20
2797763.65
  30
130
  0
VERTEX
  8
INDEX
  70
32
  10
1531829.02
  20
2797763.66
  30
130
  0
VERTEX
  8
INDEX
  70
32
  10
1531828.63
  20
2797763.73
  30
130
  0
VERTEX
  8
INDEX
  70
32
  10
1531827.93
  20
2797763.93
  30
130
  0
VERTEX
  8
INDEX
  70
32
  10
1531827.42
  20
2797764.11
  30
130
  0
SEQEND
  8
INDEX
  0
POLYLINE
  8
INTERMEDIATE
  70
8
  66
1
 62
0
 39
0
  0
VERTEX
  8
INTERMEDIATE
  70
32
  10
1531888.00
  20
2798272.03
  30
132
  0
VERTEX
  8
INTERMEDIATE
  70
32
  10
1531884.34
  20
2798272.90
  30
132
  0
VERTEX
  8
INTERMEDIATE
  70
32
  10
1531880.76
  20
2798273.82
  30
132
  0
VERTEX
  8
INTERMEDIATE
  70
32
  10
1531879.28
  20
2798274.15
  30
132
  0
VERTEX
  8
INTERMEDIATE
  70
32
  10
1531877.78
  20
2798274.44
  30
132
  0
VERTEX
  8
INTERMEDIATE
  70
32
  10
1531870.83
  20
2798275.68
  30
132
  0
VERTEX
  8
INTERMEDIATE
  70
32
  10
1531867.53
  20
2798276.30
  30
132
  0
VERTEX
  8
INTERMEDIATE
  70
32
  10
1531866.06
  20
2798276.60
  30
132
  0
VERTEX
  8
INTERMEDIATE
  70
32
  10
1531864.46
  20
2798276.97
  30
132
  0
VERTEX
  8
INTERMEDIATE
  70
32
  10
1531862.74
  20
2798277.45
  30
132
  0
VERTEX
  8
INTERMEDIATE
  70
32
  10
1531860.81
  20
2798278.06
  30
132
  0
VERTEX
  8
INTERMEDIATE
  70
32
  10
1531858.87
  20
2798278.78
  30
132
  0
VERTEX
  8
INTERMEDIATE
  70
32
  10
1531856.97
  20
2798279.57
  30
132
  0
VERTEX
  8
INTERMEDIATE
  70
32
  10
1531853.84
  20
2798281.06
  30
132
  0
VERTEX
  8
INTERMEDIATE
  70
32
  10
1531849.11
  20
2798283.38
  30
132
  0
VERTEX
  8
INTERMEDIATE
  70
32
  10
1531848.53
  20
2798283.64
  30
132
  0
VERTEX
  8
INTERMEDIATE
  70
32
  10
1531848.37
  20
2798283.68
  30
132
  0
SEQEND
  8
INTERMEDIATE
  0
POLYLINE
  8
INTERMEDIATE
  70
8
  66
1
 62
0
 39
0
  0
VERTEX
  8
INTERMEDIATE
  70
32
  10
1531832.02
  20
2797878.11
  30
132
  0
VERTEX
  8
INTERMEDIATE
  70
32
  10
1531831.99
  20
2797877.98
  30
132
  0
VERTEX
  8
INTERMEDIATE
  70
32
  10
1531832.07
  20
2797877.57
  30
132
  0
VERTEX
  8
INTERMEDIATE
  70
32
  10
1531832.31
  20
2797876.91
  30
132
  0
VERTEX
  8
INTERMEDIATE
  70
32
  10
1531832.70
  20
2797876.07
  30
132
  0
VERTEX
  8
INTERMEDIATE
  70
32
  10
1531833.43
  20
2797874.81
  30
132
  0
VERTEX
  8
INTERMEDIATE
  70
32
  10
1531834.42
  20
2797873.40
  30
132
  0
VERTEX
  8
INTERMEDIATE
  70
32
  10
1531835.61
  20
2797871.87
  30
132
  0
VERTEX
  8
INTERMEDIATE
  70
32
  10
1531836.95
  20
2797870.27
  30
132
  0
VERTEX
  8
INTERMEDIATE
  70
32
  10
1531841.45
  20
2797865.28
  30
132
  0
VERTEX
  8
INTERMEDIATE
  70
32
  10
1531842.78
  20
2797863.74
  30
132
  0
VERTEX
  8
INTERMEDIATE
  70
32
  10
1531843.93
  20
2797862.33
  30
132
  0
VERTEX
  8
INTERMEDIATE
  70
32
  10
1531845.02
  20
2797860.90
  30
132
  0
VERTEX
  8
INTERMEDIATE
  70
32
  10
1531846.07
  20
2797859.45
  30
132
  0
VERTEX
  8
INTERMEDIATE
  70
32
  10
1531849.80
  20
2797854.01
  30
132
  0
VERTEX
  8
INTERMEDIATE
  70
32
  10
1531850.77
  20
2797852.68
  30
132
  0
VERTEX
  8
INTERMEDIATE
  70
32
  10
1531851.95
  20
2797851.17
  30
132
  0
VERTEX
  8
INTERMEDIATE
  70
32
  10
1531853.16
  20
2797849.69
  30
132
  0
VERTEX
  8
INTERMEDIATE
  70
32
  10
1531855.66
  20
2797846.84
  30
132
  0
VERTEX
  8
INTERMEDIATE
  70
32
  10
1531860.68
  20
2797841.36
  30
132
  0
VERTEX
  8
INTERMEDIATE
  70
32
  10
1531861.57
  20
2797840.29
  30
132
  0
VERTEX
  8
INTERMEDIATE
  70
32
  10
1531862.46
  20
2797839.02
  30
132
  0
VERTEX
  8
INTERMEDIATE
  70
32
  10
1531863.16
  20
2797837.71
  30
132
  0
VERTEX
  8
INTERMEDIATE
  70
32
  10
1531863.60
  20
2797836.38
  30
132
  0
VERTEX
  8
INTERMEDIATE
  70
32
  10
1531863.74
  20
2797835.22
  30
132
  0
VERTEX
  8
INTERMEDIATE
  70
32
  10
1531863.71
  20
2797831.33
  30
132
  0
VERTEX
  8
INTERMEDIATE
  70
32
  10
1531863.87
  20
2797829.84
  30
132
  0
VERTEX
  8
INTERMEDIATE
  70
32
  10
1531864.17
  20
2797828.72
  30
132
  0
VERTEX
  8
INTERMEDIATE
  70
32
  10
1531864.62
  20
2797827.64
  30
132
  0
VERTEX
  8
INTERMEDIATE
  70
32
  10
1531865.31
  20
2797826.42
  30
132
  0
VERTEX
  8
INTERMEDIATE
  70
32
  10
1531866.95
  20
2797824.00
  30
132
  0
VERTEX
  8
INTERMEDIATE
  70
32
  10
1531867.73
  20
2797822.71
  30
132
  0
VERTEX
  8
INTERMEDIATE
  70
32
  10
1531868.25
  20
2797821.64
  30
132
  0
VERTEX
  8
INTERMEDIATE
  70
32
  10
1531868.70
  20
2797820.50
  30
132
  0
VERTEX
  8
INTERMEDIATE
  70
32
  10
1531869.11
  20
2797819.32
  30
132
  0
VERTEX
  8
INTERMEDIATE
  70
32
  10
1531869.62
  20
2797817.69
  30
132
  0
VERTEX
  8
INTERMEDIATE
  70
32
  10
1531871.55
  20
2797810.89
  30
132
  0
VERTEX
  8
INTERMEDIATE
  70
32
  10
1531872.09
  20
2797809.19
  30
132
  0
VERTEX
  8
INTERMEDIATE
  70
32
  10
1531872.70
  20
2797807.51
  30
132
  0
VERTEX
  8
INTERMEDIATE
  70
32
  10
1531873.81
  20
2797804.89
  30
132
  0
VERTEX
  8
INTERMEDIATE
  70
32
  10
1531875.30
  20
2797801.59
  30
132
  0
VERTEX
  8
INTERMEDIATE
  70
32
  10
1531876.08
  20
2797799.96
  30
132
  0
VERTEX
  8
INTERMEDIATE
  70
32
  10
1531877.73
  20
2797796.70
  30
132
  0
VERTEX
  8
INTERMEDIATE
  70
32
  10
1531878.48
  20
2797795.07
  30
132
  0
VERTEX
  8
INTERMEDIATE
  70
32
  10
1531879.11
  20
2797793.41
  30
132
  0
VERTEX
  8
INTERMEDIATE
  70
32
  10
1531879.55
  20
2797791.79
  30
132
  0
VERTEX
  8
INTERMEDIATE
  70
32
  10
1531879.89
  20
2797790.14
  30
132
  0
VERTEX
  8
INTERMEDIATE
  70
32
  10
1531880.17
  20
2797788.53
  30
132
  0
VERTEX
  8
INTERMEDIATE
  70
32
  10
1531880.38
  20
2797786.92
  30
132
  0
VERTEX
  8
INTERMEDIATE
  70
32
  10
1531880.50
  20
2797785.29
  30
132
  0
VERTEX
  8
INTERMEDIATE
  70
32
  10
1531880.48
  20
2797783.44
  30
132
  0
VERTEX
  8
INTERMEDIATE
  70
32
  10
1531879.96
  20
2797776.39
  30
132
  0
VERTEX
  8
INTERMEDIATE
  70
32
  10
1531879.57
  20
2797772.16
  30
132
  0
VERTEX
  8
INTERMEDIATE
  70
32
  10
1531879.49
  20
2797770.49
  30
132
  0
VERTEX
  8
INTERMEDIATE
  70
32
  10
1531879.43
  20
2797767.13
  30
132
  0
VERTEX
  8
INTERMEDIATE
  70
32
  10
1531879.36
  20
2797765.47
  30
132
  0
VERTEX
  8
INTERMEDIATE
  70
32
  10
1531879.20
  20
2797763.82
  30
132
  0
VERTEX
  8
INTERMEDIATE
  70
32
  10
1531878.96
  20
2797762.37
  30
132
  0
VERTEX
  8
INTERMEDIATE
  70
32
  10
1531878.60
  20
2797760.95
  30
132
  0
VERTEX
  8
INTERMEDIATE
  70
32
  10
1531878.21
  20
2797759.78
  30
132
  0
VERTEX
  8
INTERMEDIATE
  70
32
  10
1531877.75
  20
2797758.62
  30
132
  0
VERTEX
  8
INTERMEDIATE
  70
32
  10
1531876.07
  20
2797754.84
  30
132
  0
VERTEX
  8
INTERMEDIATE
  70
32
  10
1531875.55
  20
2797753.49
  30
132
  0
VERTEX
  8
INTERMEDIATE
  70
32
  10
1531875.16
  20
2797752.27
  30
132
  0
VERTEX
  8
INTERMEDIATE
  70
32
  10
1531874.84
  20
2797751.03
  30
132
  0
VERTEX
  8
INTERMEDIATE
  70
32
  10
1531874.61
  20
2797749.77
  30
132
  0
VERTEX
  8
INTERMEDIATE
  70
32
  10
1531874.43
  20
2797748.31
  30
132
  0
VERTEX
  8
INTERMEDIATE
  70
32
  10
1531874.35
  20
2797746.83
  30
132
  0
VERTEX
  8
INTERMEDIATE
  70
32
  10
1531874.36
  20
2797745.35
  30
132
  0
VERTEX
  8
INTERMEDIATE
  70
32
  10
1531874.45
  20
2797743.67
  30
132
  0
VERTEX
  8
INTERMEDIATE
  70
32
  10
1531874.70
  20
2797740.30
  30
132
  0
VERTEX
  8
INTERMEDIATE
  70
32
  10
1531874.76
  20
2797738.62
  30
132
  0
VERTEX
  8
INTERMEDIATE
  70
32
  10
1531874.71
  20
2797736.88
  30
132
  0
VERTEX
  8
INTERMEDIATE
  70
32
  10
1531874.53
  20
2797735.16
  30
132
  0
VERTEX
  8
INTERMEDIATE
  70
32
  10
1531874.22
  20
2797733.47
  30
132
  0
VERTEX
  8
INTERMEDIATE
  70
32
  10
1531873.77
  20
2797731.83
  30
132
  0
VERTEX
  8
INTERMEDIATE
  70
32
  10
1531873.16
  20
2797730.27
  30
132
  0
VERTEX
  8
INTERMEDIATE
  70
32
  10
1531872.43
  20
2797728.91
  30
132
  0
VERTEX
  8
INTERMEDIATE
  70
32
  10
1531871.55
  20
2797727.65
  30
132
  0
VERTEX
  8
INTERMEDIATE
  70
32
  10
1531870.59
  20
2797726.54
  30
132
  0
VERTEX
  8
INTERMEDIATE
  70
32
  10
1531869.53
  20
2797725.53
  30
132
  0
VERTEX
  8
INTERMEDIATE
  70
32
  10
1531868.38
  20
2797724.59
  30
132
  0
VERTEX
  8
INTERMEDIATE
  70
32
  10
1531867.09
  20
2797723.68
  30
132
  0
VERTEX
  8
INTERMEDIATE
  70
32
  10
1531864.42
  20
2797721.92
  30
132
  0
VERTEX
  8
INTERMEDIATE
  70
32
  10
1531863.15
  20
2797720.99
  30
132
  0
VERTEX
  8
INTERMEDIATE
  70
32
  10
1531861.82
  20
2797719.84
  30
132
  0
VERTEX
  8
INTERMEDIATE
  70
32
  10
1531860.62
  20
2797718.58
  30
132
  0
VERTEX
  8
INTERMEDIATE
  70
32
  10
1531859.57
  20
2797717.21
  30
132
  0
VERTEX
  8
INTERMEDIATE
  70
32
  10
1531858.70
  20
2797715.75
  30
132
  0
VERTEX
  8
INTERMEDIATE
  70
32
  10
1531858.07
  20
2797714.20
  30
132
  0
VERTEX
  8
INTERMEDIATE
  70
32
  10
1531857.70
  20
2797712.53
  30
132
  0
VERTEX
  8
INTERMEDIATE
  70
32
  10
1531857.55
  20
2797710.77
  30
132
  0
VERTEX
  8
INTERMEDIATE
  70
32
  10
1531857.54
  20
2797708.96
  30
132
  0
VERTEX
  8
INTERMEDIATE
  70
32
  10
1531857.61
  20
2797707.09
  30
132
  0
VERTEX
  8
INTERMEDIATE
  70
32
  10
1531858.18
  20
2797697.36
  30
132
  0
VERTEX
  8
INTERMEDIATE
  70
32
  10
1531858.23
  20
2797695.77
  30
132
  0
VERTEX
  8
INTERMEDIATE
  70
32
  10
1531858.23
  20
2797694.20
  30
132
  0
VERTEX
  8
INTERMEDIATE
  70
32
  10
1531858.14
  20
2797692.47
  30
132
  0
VERTEX
  8
INTERMEDIATE
  70
32
  10
1531857.93
  20
2797690.82
  30
132
  0
VERTEX
  8
INTERMEDIATE
  70
32
  10
1531857.58
  20
2797689.27
  30
132
  0
VERTEX
  8
INTERMEDIATE
  70
32
  10
1531857.07
  20
2797687.87
  30
132
  0
VERTEX
  8
INTERMEDIATE
  70
32
  10
1531856.33
  20
2797686.67
  30
132
  0
VERTEX
  8
INTERMEDIATE
  70
32
  10
1531855.34
  20
2797685.75
  30
132
  0
VERTEX
  8
INTERMEDIATE
  70
32
  10
1531854.14
  20
2797685.07
  30
132
  0
VERTEX
  8
INTERMEDIATE
  70
32
  10
1531852.80
  20
2797684.61
  30
132
  0
VERTEX
  8
INTERMEDIATE
  70
32
  10
1531851.35
  20
2797684.38
  30
132
  0
VERTEX
  8
INTERMEDIATE
  70
32
  10
1531849.85
  20
2797684.40
  30
132
  0
VERTEX
  8
INTERMEDIATE
  70
32
  10
1531848.32
  20
2797684.68
  30
132
  0
VERTEX
  8
INTERMEDIATE
  70
32
  10
1531846.77
  20
2797685.17
  30
132
  0
VERTEX
  8
INTERMEDIATE
  70
32
  10
1531845.21
  20
2797685.82
  30
132
  0
VERTEX
  8
INTERMEDIATE
  70
32
  10
1531843.63
  20
2797686.57
  30
132
  0
VERTEX
  8
INTERMEDIATE
  70
32
  10
1531842.04
  20
2797687.38
  30
132
  0
VERTEX
  8
INTERMEDIATE
  70
32
  10
1531838.42
  20
2797689.28
  30
132
  0
VERTEX
  8
INTERMEDIATE
  70
32
  10
1531834.44
  20
2797691.46
  30
132
  0
VERTEX
  8
INTERMEDIATE
  70
32
  10
1531832.47
  20
2797692.62
  30
132
  0
VERTEX
  8
INTERMEDIATE
  70
32
  10
1531830.47
  20
2797693.88
  30
132
  0
VERTEX
  8
INTERMEDIATE
  70
32
  10
1531828.67
  20
2797695.08
  30
132
  0
VERTEX
  8
INTERMEDIATE
  70
32
  10
1531825.90
  20
2797697.04
  30
132
  0
VERTEX
  8
INTERMEDIATE
  70
32
  10
1531824.75
  20
2797697.92
  30
132
  0
SEQEND
  8
INTERMEDIATE
  0
POLYLINE
  8
INTERMEDIATE
  70
8
  66
1
 62
0
 39
0
  0
VERTEX
  8
INTERMEDIATE
  70
32
  10
1531888.00
  20
2798258.36
  30
134
  0
VERTEX
  8
INTERMEDIATE
  70
32
  10
1531887.24
  20
2798258.52
  30
134
  0
VERTEX
  8
INTERMEDIATE
  70
32
  10
1531885.76
  20
2798258.91
  30
134
  0
VERTEX
  8
INTERMEDIATE
  70
32
  10
1531884.29
  20
2798259.35
  30
134
  0
VERTEX
  8
INTERMEDIATE
  70
32
  10
1531882.45
  20
2798259.99
  30
134
  0
VERTEX
  8
INTERMEDIATE
  70
32
  10
1531880.63
  20
2798260.69
  30
134
  0
VERTEX
  8
INTERMEDIATE
  70
32
  10
1531879.00
  20
2798261.35
  30
134
  0
VERTEX
  8
INTERMEDIATE
  70
32
  10
1531877.39
  20
2798262.06
  30
134
  0
VERTEX
  8
INTERMEDIATE
  70
32
  10
1531872.04
  20
2798264.59
  30
134
  0
VERTEX
  8
INTERMEDIATE
  70
32
  10
1531870.53
  20
2798265.21
  30
134
  0
VERTEX
  8
INTERMEDIATE
  70
32
  10
1531869.00
  20
2798265.78
  30
134
  0
VERTEX
  8
INTERMEDIATE
  70
32
  10
1531867.44
  20
2798266.29
  30
134
  0
VERTEX
  8
INTERMEDIATE
  70
32
  10
1531865.78
  20
2798266.79
  30
134
  0
VERTEX
  8
INTERMEDIATE
  70
32
  10
1531863.89
  20
2798267.29
  30
134
  0
VERTEX
  8
INTERMEDIATE
  70
32
  10
1531861.87
  20
2798267.78
  30
134
  0
VERTEX
  8
INTERMEDIATE
  70
32
  10
1531852.37
  20
2798269.97
  30
134
  0
VERTEX
  8
INTERMEDIATE
  70
32
  10
1531849.88
  20
2798270.58
  30
134
  0
VERTEX
  8
INTERMEDIATE
  70
32
  10
1531848.64
  20
2798270.92
  30
134
  0
VERTEX
  8
INTERMEDIATE
  70
32
  10
1531847.96
  20
2798271.14
  30
134
  0
VERTEX
  8
INTERMEDIATE
  70
32
  10
1531847.87
  20
2798271.20
  30
134
  0
SEQEND
  8
INTERMEDIATE
  0
POLYLINE
  8
INTERMEDIATE
  70
8
  66
1
 62
0
 39
0
  0
VERTEX
  8
INTERMEDIATE
  70
32
  10
1531832.86
  20
2797899.08
  30
134
  0
VERTEX
  8
INTERMEDIATE
  70
32
  10
1531832.95
  20
2797898.87
  30
134
  0
VERTEX
  8
INTERMEDIATE
  70
32
  10
1531833.28
  20
2797898.31
  30
134
  0
VERTEX
  8
INTERMEDIATE
  70
32
  10
1531833.82
  20
2797897.46
  30
134
  0
VERTEX
  8
INTERMEDIATE
  70
32
  10
1531835.52
  20
2797895.05
  30
134
  0
VERTEX
  8
INTERMEDIATE
  70
32
  10
1531836.63
  20
2797893.58
  30
134
  0
VERTEX
  8
INTERMEDIATE
  70
32
  10
1531841.98
  20
2797886.71
  30
134
  0
VERTEX
  8
INTERMEDIATE
  70
32
  10
1531845.89
  20
2797881.84
  30
134
  0
VERTEX
  8
INTERMEDIATE
  70
32
  10
1531847.08
  20
2797880.33
  30
134
  0
VERTEX
  8
INTERMEDIATE
  70
32
  10
1531848.05
  20
2797879.03
  30
134
  0
VERTEX
  8
INTERMEDIATE
  70
32
  10
1531849.87
  20
2797876.40
  30
134
  0
VERTEX
  8
INTERMEDIATE
  70
32
  10
1531852.22
  20
2797872.77
  30
134
  0
VERTEX
  8
INTERMEDIATE
  70
32
  10
1531852.91
  20
2797871.67
  30
134
  0
VERTEX
  8
INTERMEDIATE
  70
32
  10
1531853.83
  20
2797870.11
  30
134
  0
VERTEX
  8
INTERMEDIATE
  70
32
  10
1531854.68
  20
2797868.49
  30
134
  0
VERTEX
  8
INTERMEDIATE
  70
32
  10
1531855.47
  20
2797866.84
  30
134
  0
VERTEX
  8
INTERMEDIATE
  70
32
  10
1531856.20
  20
2797865.16
  30
134
  0
VERTEX
  8
INTERMEDIATE
  70
32
  10
1531858.29
  20
2797860.11
  30
134
  0
VERTEX
  8
INTERMEDIATE
  70
32
  10
1531859.04
  20
2797858.48
  30
134
  0
VERTEX
  8
INTERMEDIATE
  70
32
  10
1531859.61
  20
2797857.38
  30
134
  0
VERTEX
  8
INTERMEDIATE
  70
32
  10
1531860.23
  20
2797856.31
  30
134
  0
VERTEX
  8
INTERMEDIATE
  70
32
  10
1531860.97
  20
2797855.19
  30
134
  0
VERTEX
  8
INTERMEDIATE
  70
32
  10
1531861.79
  20
2797854.13
  30
134
  0
VERTEX
  8
INTERMEDIATE
  70
32
  10
1531862.66
  20
2797853.13
  30
134
  0
VERTEX
  8
INTERMEDIATE
  70
32
  10
1531864.95
  20
2797850.86
  30
134
  0
VERTEX
  8
INTERMEDIATE
  70
32
  10
1531868.54
  20
2797847.14
  30
134
  0
VERTEX
  8
INTERMEDIATE
  70
32
  10
1531869.74
  20
2797845.84
  30
134
  0
VERTEX
  8
INTERMEDIATE
  70
32
  10
1531870.92
  20
2797844.51
  30
134
  0
VERTEX
  8
INTERMEDIATE
  70
32
  10
1531872.06
  20
2797843.13
  30
134
  0
VERTEX
  8
INTERMEDIATE
  70
32
  10
1531873.13
  20
2797841.70
  30
134
  0
VERTEX
  8
INTERMEDIATE
  70
32
  10
1531874.13
  20
2797840.22
  30
134
  0
VERTEX
  8
INTERMEDIATE
  70
32
  10
1531875.08
  20
2797838.62
  30
134
  0
VERTEX
  8
INTERMEDIATE
  70
32
  10
1531876.70
  20
2797835.48
  30
134
  0
VERTEX
  8
INTERMEDIATE
  70
32
  10
1531878.13
  20
2797832.45
  30
134
  0
VERTEX
  8
INTERMEDIATE
  70
32
  10
1531879.47
  20
2797829.37
  30
134
  0
VERTEX
  8
INTERMEDIATE
  70
32
  10
1531880.57
  20
2797826.63
  30
134
  0
VERTEX
  8
INTERMEDIATE
  70
32
  10
1531882.11
  20
2797822.56
  30
134
  0
VERTEX
  8
INTERMEDIATE
  70
32
  10
1531882.66
  20
2797821.24
  30
134
  0
VERTEX
  8
INTERMEDIATE
  70
32
  10
1531883.42
  20
2797819.60
  30
134
  0
VERTEX
  8
INTERMEDIATE
  70
32
  10
1531884.95
  20
2797816.45
  30
134
  0
VERTEX
  8
INTERMEDIATE
  70
32
  10
1531885.66
  20
2797814.90
  30
134
  0
VERTEX
  8
INTERMEDIATE
  70
32
  10
1531886.32
  20
2797813.33
  30
134
  0
VERTEX
  8
INTERMEDIATE
  70
32
  10
1531886.91
  20
2797811.73
  30
134
  0
VERTEX
  8
INTERMEDIATE
  70
32
  10
1531887.43
  20
2797810.11
  30
134
  0
VERTEX
  8
INTERMEDIATE
  70
32
  10
1531887.90
  20
2797808.46
  30
134
  0
VERTEX
  8
INTERMEDIATE
  70
32
  10
1531888.00
  20
2797808.06
  30
134
  0
SEQEND
  8
INTERMEDIATE
  0
POLYLINE
  8
INTERMEDIATE
  70
8
  66
1
 62
0
 39
0
  0
VERTEX
  8
INTERMEDIATE
  70
32
  10
1531888.00
  20
2797761.55
  30
134
  0
VERTEX
  8
INTERMEDIATE
  70
32
  10
1531887.49
  20
2797759.39
  30
134
  0
VERTEX
  8
INTERMEDIATE
  70
32
  10
1531886.27
  20
2797754.83
  30
134
  0
VERTEX
  8
INTERMEDIATE
  70
32
  10
1531886.00
  20
2797753.26
  30
134
  0
VERTEX
  8
INTERMEDIATE
  70
32
  10
1531885.93
  20
2797751.75
  30
134
  0
VERTEX
  8
INTERMEDIATE
  70
32
  10
1531886.05
  20
2797748.73
  30
134
  0
VERTEX
  8
INTERMEDIATE
  70
32
  10
1531886.06
  20
2797747.58
  30
134
  0
VERTEX
  8
INTERMEDIATE
  70
32
  10
1531885.98
  20
2797746.33
  30
134
  0
VERTEX
  8
INTERMEDIATE
  70
32
  10
1531885.84
  20
2797745.10
  30
134
  0
VERTEX
  8
INTERMEDIATE
  70
32
  10
1531885.63
  20
2797743.90
  30
134
  0
VERTEX
  8
INTERMEDIATE
  70
32
  10
1531885.01
  20
2797740.98
  30
134
  0
VERTEX
  8
INTERMEDIATE
  70
32
  10
1531884.84
  20
2797739.42
  30
134
  0
VERTEX
  8
INTERMEDIATE
  70
32
  10
1531884.80
  20
2797737.75
  30
134
  0
VERTEX
  8
INTERMEDIATE
  70
32
  10
1531884.92
  20
2797731.81
  30
134
  0
VERTEX
  8
INTERMEDIATE
  70
32
  10
1531884.88
  20
2797730.39
  30
134
  0
VERTEX
  8
INTERMEDIATE
  70
32
  10
1531884.50
  20
2797725.52
  30
134
  0
VERTEX
  8
INTERMEDIATE
  70
32
  10
1531884.47
  20
2797724.45
  30
134
  0
VERTEX
  8
INTERMEDIATE
  70
32
  10
1531884.49
  20
2797723.34
  30
134
  0
VERTEX
  8
INTERMEDIATE
  70
32
  10
1531884.58
  20
2797719.27
  30
134
  0
VERTEX
  8
INTERMEDIATE
  70
32
  10
1531884.56
  20
2797717.55
  30
134
  0
VERTEX
  8
INTERMEDIATE
  70
32
  10
1531884.50
  20
2797715.83
  30
134
  0
VERTEX
  8
INTERMEDIATE
  70
32
  10
1531884.39
  20
2797714.10
  30
134
  0
VERTEX
  8
INTERMEDIATE
  70
32
  10
1531884.23
  20
2797712.38
  30
134
  0
VERTEX
  8
INTERMEDIATE
  70
32
  10
1531884.02
  20
2797710.67
  30
134
  0
VERTEX
  8
INTERMEDIATE
  70
32
  10
1531883.42
  20
2797706.59
  30
134
  0
VERTEX
  8
INTERMEDIATE
  70
32
  10
1531882.82
  20
2797701.05
  30
134
  0
VERTEX
  8
INTERMEDIATE
  70
32
  10
1531882.33
  20
2797697.51
  30
134
  0
VERTEX
  8
INTERMEDIATE
  70
32
  10
1531881.57
  20
2797692.76
  30
134
  0
VERTEX
  8
INTERMEDIATE
  70
32
  10
1531881.38
  20
2797691.27
  30
134
  0
VERTEX
  8
INTERMEDIATE
  70
32
  10
1531881.27
  20
2797689.78
  30
134
  0
VERTEX
  8
INTERMEDIATE
  70
32
  10
1531881.27
  20
2797688.02
  30
134
  0
VERTEX
  8
INTERMEDIATE
  70
32
  10
1531881.37
  20
2797686.25
  30
134
  0
VERTEX
  8
INTERMEDIATE
  70
32
  10
1531881.69
  20
2797682.70
  30
134
  0
VERTEX
  8
INTERMEDIATE
  70
32
  10
1531881.81
  20
2797680.91
  30
134
  0
VERTEX
  8
INTERMEDIATE
  70
32
  10
1531881.85
  20
2797679.20
  30
134
  0
VERTEX
  8
INTERMEDIATE
  70
32
  10
1531881.80
  20
2797677.49
  30
134
  0
VERTEX
  8
INTERMEDIATE
  70
32
  10
1531881.65
  20
2797675.79
  30
134
  0
VERTEX
  8
INTERMEDIATE
  70
32
  10
1531881.42
  20
2797674.24
  30
134
  0
VERTEX
  8
INTERMEDIATE
  70
32
  10
1531881.12
  20
2797672.70
  30
134
  0
VERTEX
  8
INTERMEDIATE
  70
32
  10
1531880.77
  20
2797671.17
  30
134
  0
VERTEX
  8
INTERMEDIATE
  70
32
  10
1531879.99
  20
2797668.06
  30
134
  0
VERTEX
  8
INTERMEDIATE
  70
32
  10
1531878.37
  20
2797662.04
  30
134
  0
VERTEX
  8
INTERMEDIATE
  70
32
  10
1531878.05
  20
2797660.69
  30
134
  0
VERTEX
  8
INTERMEDIATE
  70
32
  10
1531877.76
  20
2797659.00
  30
134
  0
VERTEX
  8
INTERMEDIATE
  70
32
  10
1531877.37
  20
2797655.41
  30
134
  0
VERTEX
  8
INTERMEDIATE
  70
32
  10
1531877.18
  20
2797653.85
  30
134
  0
VERTEX
  8
INTERMEDIATE
  70
32
  10
1531876.92
  20
2797652.28
  30
134
  0
VERTEX
  8
INTERMEDIATE
  70
32
  10
1531876.58
  20
2797650.55
  30
134
  0
VERTEX
  8
INTERMEDIATE
  70
32
  10
1531875.40
  20
2797645.34
  30
134
  0
VERTEX
  8
INTERMEDIATE
  70
32
  10
1531875.04
  20
2797643.60
  30
134
  0
VERTEX
  8
INTERMEDIATE
  70
32
  10
1531874.74
  20
2797641.84
  30
134
  0
VERTEX
  8
INTERMEDIATE
  70
32
  10
1531874.53
  20
2797640.29
  30
134
  0
VERTEX
  8
INTERMEDIATE
  70
32
  10
1531874.05
  20
2797635.51
  30
134
  0
VERTEX
  8
INTERMEDIATE
  70
32
  10
1531873.66
  20
2797632.44
  30
134
  0
VERTEX
  8
INTERMEDIATE
  70
32
  10
1531873.43
  20
2797631.06
  30
134
  0
VERTEX
  8
INTERMEDIATE
  70
32
  10
1531873.12
  20
2797629.74
  30
134
  0
VERTEX
  8
INTERMEDIATE
  70
32
  10
1531872.63
  20
2797628.20
  30
134
  0
VERTEX
  8
INTERMEDIATE
  70
32
  10
1531871.95
  20
2797626.81
  30
134
  0
VERTEX
  8
INTERMEDIATE
  70
32
  10
1531871.05
  20
2797625.62
  30
134
  0
VERTEX
  8
INTERMEDIATE
  70
32
  10
1531869.89
  20
2797624.67
  30
134
  0
VERTEX
  8
INTERMEDIATE
  70
32
  10
1531868.52
  20
2797623.90
  30
134
  0
VERTEX
  8
INTERMEDIATE
  70
32
  10
1531866.99
  20
2797623.27
  30
134
  0
VERTEX
  8
INTERMEDIATE
  70
32
  10
1531865.37
  20
2797622.72
  30
134
  0
VERTEX
  8
INTERMEDIATE
  70
32
  10
1531862.01
  20
2797621.70
  30
134
  0
VERTEX
  8
INTERMEDIATE
  70
32
  10
1531860.36
  20
2797621.15
  30
134
  0
VERTEX
  8
INTERMEDIATE
  70
32
  10
1531859.07
  20
2797620.64
  30
134
  0
VERTEX
  8
INTERMEDIATE
  70
32
  10
1531857.85
  20
2797620.06
  30
134
  0
VERTEX
  8
INTERMEDIATE
  70
32
  10
1531856.75
  20
2797619.38
  30
134
  0
VERTEX
  8
INTERMEDIATE
  70
32
  10
1531855.76
  20
2797618.61
  30
134
  0
VERTEX
  8
INTERMEDIATE
  70
32
  10
1531854.93
  20
2797617.75
  30
134
  0
VERTEX
  8
INTERMEDIATE
  70
32
  10
1531854.28
  20
2797616.82
  30
134
  0
VERTEX
  8
INTERMEDIATE
  70
32
  10
1531853.80
  20
2797615.66
  30
134
  0
VERTEX
  8
INTERMEDIATE
  70
32
  10
1531853.59
  20
2797614.46
  30
134
  0
VERTEX
  8
INTERMEDIATE
  70
32
  10
1531853.65
  20
2797613.26
  30
134
  0
VERTEX
  8
INTERMEDIATE
  70
32
  10
1531853.99
  20
2797612.12
  30
134
  0
VERTEX
  8
INTERMEDIATE
  70
32
  10
1531854.63
  20
2797611.09
  30
134
  0
VERTEX
  8
INTERMEDIATE
  70
32
  10
1531855.46
  20
2797610.12
  30
134
  0
VERTEX
  8
INTERMEDIATE
  70
32
  10
1531857.38
  20
2797608.17
  30
134
  0
VERTEX
  8
INTERMEDIATE
  70
32
  10
1531858.31
  20
2797607.06
  30
134
  0
VERTEX
  8
INTERMEDIATE
  70
32
  10
1531859.13
  20
2797605.90
  30
134
  0
VERTEX
  8
INTERMEDIATE
  70
32
  10
1531859.77
  20
2797604.71
  30
134
  0
VERTEX
  8
INTERMEDIATE
  70
32
  10
1531860.18
  20
2797603.54
  30
134
  0
VERTEX
  8
INTERMEDIATE
  70
32
  10
1531860.26
  20
2797602.41
  30
134
  0
VERTEX
  8
INTERMEDIATE
  70
32
  10
1531859.90
  20
2797601.27
  30
134
  0
VERTEX
  8
INTERMEDIATE
  70
32
  10
1531859.12
  20
2797600.29
  30
134
  0
VERTEX
  8
INTERMEDIATE
  70
32
  10
1531858.22
  20
2797599.63
  30
134
  0
VERTEX
  8
INTERMEDIATE
  70
32
  10
1531857.12
  20
2797599.11
  30
134
  0
VERTEX
  8
INTERMEDIATE
  70
32
  10
1531855.88
  20
2797598.72
  30
134
  0
VERTEX
  8
INTERMEDIATE
  70
32
  10
1531854.38
  20
2797598.42
  30
134
  0
VERTEX
  8
INTERMEDIATE
  70
32
  10
1531852.78
  20
2797598.25
  30
134
  0
VERTEX
  8
INTERMEDIATE
  70
32
  10
1531851.10
  20
2797598.18
  30
134
  0
VERTEX
  8
INTERMEDIATE
  70
32
  10
1531849.38
  20
2797598.19
  30
134
  0
VERTEX
  8
INTERMEDIATE
  70
32
  10
1531847.63
  20
2797598.28
  30
134
  0
VERTEX
  8
INTERMEDIATE
  70
32
  10
1531845.85
  20
2797598.45
  30
134
  0
VERTEX
  8
INTERMEDIATE
  70
32
  10
1531844.21
  20
2797598.66
  30
134
  0
VERTEX
  8
INTERMEDIATE
  70
32
  10
1531840.91
  20
2797599.24
  30
134
  0
VERTEX
  8
INTERMEDIATE
  70
32
  10
1531837.30
  20
2797599.96
  30
134
  0
VERTEX
  8
INTERMEDIATE
  70
32
  10
1531835.12
  20
2797600.29
  30
134
  0
VERTEX
  8
INTERMEDIATE
  70
32
  10
1531832.82
  20
2797600.53
  30
134
  0
VERTEX
  8
INTERMEDIATE
  70
32
  10
1531830.49
  20
2797600.62
  30
134
  0
VERTEX
  8
INTERMEDIATE
  70
32
  10
1531828.49
  20
2797600.55
  30
134
  0
VERTEX
  8
INTERMEDIATE
  70
32
  10
1531826.59
  20
2797600.36
  30
134
  0
VERTEX
  8
INTERMEDIATE
  70
32
  10
1531824.86
  20
2797600.07
  30
134
  0
VERTEX
  8
INTERMEDIATE
  70
32
  10
1531823.36
  20
2797599.69
  30
134
  0
VERTEX
  8
INTERMEDIATE
  70
32
  10
1531822.15
  20
2797599.25
  30
134
  0
VERTEX
  8
INTERMEDIATE
  70
32
  10
1531821.40
  20
2797598.87
  30
134
  0
VERTEX
  8
INTERMEDIATE
  70
32
  10
1531820.92
  20
2797598.52
  30
134
  0
VERTEX
  8
INTERMEDIATE
  70
32
  10
1531820.73
  20
2797598.14
  30
134
  0
SEQEND
  8
INTERMEDIATE
  0
POLYLINE
  8
INTERMEDIATE
  70
8
  66
1
 62
0
 39
0
  0
VERTEX
  8
INTERMEDIATE
  70
32
  10
1531888.00
  20
2798025.57
  30
136
  0
VERTEX
  8
INTERMEDIATE
  70
32
  10
1531887.63
  20
2798026.24
  30
136
  0
VERTEX
  8
INTERMEDIATE
  70
32
  10
1531886.80
  20
2798027.61
  30
136
  0
VERTEX
  8
INTERMEDIATE
  70
32
  10
1531885.94
  20
2798028.95
  30
136
  0
VERTEX
  8
INTERMEDIATE
  70
32
  10
1531883.58
  20
2798032.30
  30
136
  0
VERTEX
  8
INTERMEDIATE
  70
32
  10
1531883.03
  20
2798033.15
  30
136
  0
VERTEX
  8
INTERMEDIATE
  70
32
  10
1531880.56
  20
2798037.12
  30
136
  0
VERTEX
  8
INTERMEDIATE
  70
32
  10
1531879.65
  20
2798038.73
  30
136
  0
VERTEX
  8
INTERMEDIATE
  70
32
  10
1531878.86
  20
2798040.31
  30
136
  0
VERTEX
  8
INTERMEDIATE
  70
32
  10
1531878.14
  20
2798041.92
  30
136
  0
VERTEX
  8
INTERMEDIATE
  70
32
  10
1531877.51
  20
2798043.56
  30
136
  0
VERTEX
  8
INTERMEDIATE
  70
32
  10
1531876.97
  20
2798045.23
  30
136
  0
VERTEX
  8
INTERMEDIATE
  70
32
  10
1531876.55
  20
2798046.91
  30
136
  0
VERTEX
  8
INTERMEDIATE
  70
32
  10
1531876.32
  20
2798048.33
  30
136
  0
VERTEX
  8
INTERMEDIATE
  70
32
  10
1531876.19
  20
2798049.76
  30
136
  0
VERTEX
  8
INTERMEDIATE
  70
32
  10
1531876.21
  20
2798051.18
  30
136
  0
VERTEX
  8
INTERMEDIATE
  70
32
  10
1531876.37
  20
2798052.61
  30
136
  0
VERTEX
  8
INTERMEDIATE
  70
32
  10
1531876.66
  20
2798054.04
  30
136
  0
VERTEX
  8
INTERMEDIATE
  70
32
  10
1531877.05
  20
2798055.45
  30
136
  0
VERTEX
  8
INTERMEDIATE
  70
32
  10
1531877.63
  20
2798057.12
  30
136
  0
VERTEX
  8
INTERMEDIATE
  70
32
  10
1531878.30
  20
2798058.78
  30
136
  0
VERTEX
  8
INTERMEDIATE
  70
32
  10
1531879.02
  20
2798060.42
  30
136
  0
VERTEX
  8
INTERMEDIATE
  70
32
  10
1531879.70
  20
2798061.88
  30
136
  0
VERTEX
  8
INTERMEDIATE
  70
32
  10
1531880.43
  20
2798063.32
  30
136
  0
VERTEX
  8
INTERMEDIATE
  70
32
  10
1531881.21
  20
2798064.72
  30
136
  0
VERTEX
  8
INTERMEDIATE
  70
32
  10
1531882.06
  20
2798066.06
  30
136
  0
VERTEX
  8
INTERMEDIATE
  70
32
  10
1531883.07
  20
2798067.41
  30
136
  0
VERTEX
  8
INTERMEDIATE
  70
32
  10
1531884.16
  20
2798068.67
  30
136
  0
VERTEX
  8
INTERMEDIATE
  70
32
  10
1531885.35
  20
2798069.83
  30
136
  0
VERTEX
  8
INTERMEDIATE
  70
32
  10
1531886.42
  20
2798070.73
  30
136
  0
VERTEX
  8
INTERMEDIATE
  70
32
  10
1531888.00
  20
2798071.95
  30
136
  0
SEQEND
  8
INTERMEDIATE
  0
POLYLINE
  8
INTERMEDIATE
  70
8
  66
1
 62
0
 39
0
  0
VERTEX
  8
INTERMEDIATE
  70
32
  10
1531888.00
  20
2798249.54
  30
136
  0
VERTEX
  8
INTERMEDIATE
  70
32
  10
1531884.36
  20
2798251.81
  30
136
  0
VERTEX
  8
INTERMEDIATE
  70
32
  10
1531883.10
  20
2798252.57
  30
136
  0
VERTEX
  8
INTERMEDIATE
  70
32
  10
1531881.81
  20
2798253.29
  30
136
  0
VERTEX
  8
INTERMEDIATE
  70
32
  10
1531879.18
  20
2798254.68
  30
136
  0
VERTEX
  8
INTERMEDIATE
  70
32
  10
1531876.25
  20
2798256.08
  30
136
  0
VERTEX
  8
INTERMEDIATE
  70
32
  10
1531874.76
  20
2798256.72
  30
136
  0
VERTEX
  8
INTERMEDIATE
  70
32
  10
1531873.13
  20
2798257.36
  30
136
  0
VERTEX
  8
INTERMEDIATE
  70
32
  10
1531871.47
  20
2798257.95
  30
136
  0
VERTEX
  8
INTERMEDIATE
  70
32
  10
1531870.03
  20
2798258.42
  30
136
  0
VERTEX
  8
INTERMEDIATE
  70
32
  10
1531867.11
  20
2798259.27
  30
136
  0
VERTEX
  8
INTERMEDIATE
  70
32
  10
1531865.51
  20
2798259.67
  30
136
  0
VERTEX
  8
INTERMEDIATE
  70
32
  10
1531863.76
  20
2798260.06
  30
136
  0
VERTEX
  8
INTERMEDIATE
  70
32
  10
1531861.89
  20
2798260.42
  30
136
  0
VERTEX
  8
INTERMEDIATE
  70
32
  10
1531859.94
  20
2798260.75
  30
136
  0
VERTEX
  8
INTERMEDIATE
  70
32
  10
1531857.96
  20
2798261.02
  30
136
  0
VERTEX
  8
INTERMEDIATE
  70
32
  10
1531855.39
  20
2798261.28
  30
136
  0
VERTEX
  8
INTERMEDIATE
  70
32
  10
1531853.02
  20
2798261.45
  30
136
  0
VERTEX
  8
INTERMEDIATE
  70
32
  10
1531847.48
  20
2798261.69
  30
136
  0
SEQEND
  8
INTERMEDIATE
  0
POLYLINE
  8
INTERMEDIATE
  70
8
  66
1
 62
0
 39
0
  0
VERTEX
  8
INTERMEDIATE
  70
32
  10
1531833.24
  20
2797908.31
  30
136
  0
VERTEX
  8
INTERMEDIATE
  70
32
  10
1531833.53
  20
2797907.96
  30
136
  0
VERTEX
  8
INTERMEDIATE
  70
32
  10
1531834.34
  20
2797906.75
  30
136
  0
VERTEX
  8
INTERMEDIATE
  70
32
  10
1531839.48
  20
2797898.47
  30
136
  0
VERTEX
  8
INTERMEDIATE
  70
32
  10
1531840.71
  20
2797896.58
  30
136
  0
VERTEX
  8
INTERMEDIATE
  70
32
  10
1531842.67
  20
2797893.75
  30
136
  0
VERTEX
  8
INTERMEDIATE
  70
32
  10
1531843.94
  20
2797891.99
  30
136
  0
VERTEX
  8
INTERMEDIATE
  70
32
  10
1531846.30
  20
2797888.89
  30
136
  0
VERTEX
  8
INTERMEDIATE
  70
32
  10
1531847.50
  20
2797887.37
  30
136
  0
VERTEX
  8
INTERMEDIATE
  70
32
  10
1531851.95
  20
2797881.93
  30
136
  0
VERTEX
  8
INTERMEDIATE
  70
32
  10
1531853.03
  20
2797880.55
  30
136
  0
VERTEX
  8
INTERMEDIATE
  70
32
  10
1531854.18
  20
2797878.96
  30
136
  0
VERTEX
  8
INTERMEDIATE
  70
32
  10
1531855.29
  20
2797877.35
  30
136
  0
VERTEX
  8
INTERMEDIATE
  70
32
  10
1531856.34
  20
2797875.68
  30
136
  0
VERTEX
  8
INTERMEDIATE
  70
32
  10
1531857.36
  20
2797874.00
  30
136
  0
VERTEX
  8
INTERMEDIATE
  70
32
  10
1531861.97
  20
2797865.87
  30
136
  0
VERTEX
  8
INTERMEDIATE
  70
32
  10
1531862.80
  20
2797864.55
  30
136
  0
VERTEX
  8
INTERMEDIATE
  70
32
  10
1531863.38
  20
2797863.73
  30
136
  0
VERTEX
  8
INTERMEDIATE
  70
32
  10
1531864.00
  20
2797862.94
  30
136
  0
VERTEX
  8
INTERMEDIATE
  70
32
  10
1531865.21
  20
2797861.65
  30
136
  0
VERTEX
  8
INTERMEDIATE
  70
32
  10
1531867.76
  20
2797859.15
  30
136
  0
VERTEX
  8
INTERMEDIATE
  70
32
  10
1531869.02
  20
2797857.84
  30
136
  0
VERTEX
  8
INTERMEDIATE
  70
32
  10
1531870.27
  20
2797856.49
  30
136
  0
VERTEX
  8
INTERMEDIATE
  70
32
  10
1531872.45
  20
2797854.00
  30
136
  0
VERTEX
  8
INTERMEDIATE
  70
32
  10
1531874.37
  20
2797851.59
  30
136
  0
VERTEX
  8
INTERMEDIATE
  70
32
  10
1531875.97
  20
2797849.45
  30
136
  0
VERTEX
  8
INTERMEDIATE
  70
32
  10
1531876.69
  20
2797848.42
  30
136
  0
VERTEX
  8
INTERMEDIATE
  70
32
  10
1531877.54
  20
2797847.11
  30
136
  0
VERTEX
  8
INTERMEDIATE
  70
32
  10
1531878.05
  20
2797846.24
  30
136
  0
VERTEX
  8
INTERMEDIATE
  70
32
  10
1531878.59
  20
2797845.23
  30
136
  0
VERTEX
  8
INTERMEDIATE
  70
32
  10
1531879.09
  20
2797844.19
  30
136
  0
VERTEX
  8
INTERMEDIATE
  70
32
  10
1531879.74
  20
2797842.74
  30
136
  0
VERTEX
  8
INTERMEDIATE
  70
32
  10
1531880.35
  20
2797841.25
  30
136
  0
VERTEX
  8
INTERMEDIATE
  70
32
  10
1531884.28
  20
2797831.13
  30
136
  0
VERTEX
  8
INTERMEDIATE
  70
32
  10
1531885.66
  20
2797827.77
  30
136
  0
VERTEX
  8
INTERMEDIATE
  70
32
  10
1531886.41
  20
2797826.12
  30
136
  0
VERTEX
  8
INTERMEDIATE
  70
32
  10
1531888.00
  20
2797823.04
  30
136
  0
SEQEND
  8
INTERMEDIATE
  0
POLYLINE
  8
INTERMEDIATE
  70
8
  66
1
 62
0
 39
0
  0
VERTEX
  8
INTERMEDIATE
  70
32
  10
1531888.00
  20
2797666.29
  30
136
  0
VERTEX
  8
INTERMEDIATE
  70
32
  10
1531887.83
  20
2797665.68
  30
136
  0
VERTEX
  8
INTERMEDIATE
  70
32
  10
1531887.42
  20
2797664.43
  30
136
  0
VERTEX
  8
INTERMEDIATE
  70
32
  10
1531885.56
  20
2797659.35
  30
136
  0
VERTEX
  8
INTERMEDIATE
  70
32
  10
1531885.12
  20
2797658.03
  30
136
  0
VERTEX
  8
INTERMEDIATE
  70
32
  10
1531884.70
  20
2797656.51
  30
136
  0
VERTEX
  8
INTERMEDIATE
  70
32
  10
1531884.35
  20
2797654.97
  30
136
  0
VERTEX
  8
INTERMEDIATE
  70
32
  10
1531883.79
  20
2797651.85
  30
136
  0
VERTEX
  8
INTERMEDIATE
  70
32
  10
1531882.73
  20
2797645.16
  30
136
  0
VERTEX
  8
INTERMEDIATE
  70
32
  10
1531881.63
  20
2797635.86
  30
136
  0
VERTEX
  8
INTERMEDIATE
  70
32
  10
1531881.42
  20
2797633.55
  30
136
  0
VERTEX
  8
INTERMEDIATE
  70
32
  10
1531881.34
  20
2797631.95
  30
136
  0
VERTEX
  8
INTERMEDIATE
  70
32
  10
1531881.30
  20
2797630.34
  30
136
  0
VERTEX
  8
INTERMEDIATE
  70
32
  10
1531881.31
  20
2797628.74
  30
136
  0
VERTEX
  8
INTERMEDIATE
  70
32
  10
1531881.38
  20
2797626.90
  30
136
  0
VERTEX
  8
INTERMEDIATE
  70
32
  10
1531881.52
  20
2797625.06
  30
136
  0
VERTEX
  8
INTERMEDIATE
  70
32
  10
1531881.74
  20
2797623.23
  30
136
  0
VERTEX
  8
INTERMEDIATE
  70
32
  10
1531881.99
  20
2797621.72
  30
136
  0
VERTEX
  8
INTERMEDIATE
  70
32
  10
1531882.29
  20
2797620.21
  30
136
  0
VERTEX
  8
INTERMEDIATE
  70
32
  10
1531882.99
  20
2797617.20
  30
136
  0
VERTEX
  8
INTERMEDIATE
  70
32
  10
1531883.66
  20
2797614.62
  30
136
  0
VERTEX
  8
INTERMEDIATE
  70
32
  10
1531884.42
  20
2797611.93
  30
136
  0
VERTEX
  8
INTERMEDIATE
  70
32
  10
1531884.87
  20
2797610.55
  30
136
  0
VERTEX
  8
INTERMEDIATE
  70
32
  10
1531885.45
  20
2797608.99
  30
136
  0
VERTEX
  8
INTERMEDIATE
  70
32
  10
1531886.20
  20
2797607.26
  30
136
  0
VERTEX
  8
INTERMEDIATE
  70
32
  10
1531887.02
  20
2797605.55
  30
136
  0
VERTEX
  8
INTERMEDIATE
  70
32
  10
1531887.89
  20
2797603.86
  30
136
  0
VERTEX
  8
INTERMEDIATE
  70
32
  10
1531888.00
  20
2797603.65
  30
136
  0
SEQEND
  8
INTERMEDIATE
  0
POLYLINE
  8
INTERMEDIATE
  70
8
  66
1
 62
0
 39
0
  0
VERTEX
  8
INTERMEDIATE
  70
32
  10
1531888.00
  20
2797535.25
  30
136
  0
VERTEX
  8
INTERMEDIATE
  70
32
  10
1531887.70
  20
2797534.64
  30
136
  0
VERTEX
  8
INTERMEDIATE
  70
32
  10
1531887.02
  20
2797533.49
  30
136
  0
VERTEX
  8
INTERMEDIATE
  70
32
  10
1531886.23
  20
2797532.44
  30
136
  0
VERTEX
  8
INTERMEDIATE
  70
32
  10
1531885.13
  20
2797531.38
  30
136
  0
VERTEX
  8
INTERMEDIATE
  70
32
  10
1531883.86
  20
2797530.48
  30
136
  0
VERTEX
  8
INTERMEDIATE
  70
32
  10
1531882.47
  20
2797529.72
  30
136
  0
VERTEX
  8
INTERMEDIATE
  70
32
  10
1531880.98
  20
2797529.09
  30
136
  0
VERTEX
  8
INTERMEDIATE
  70
32
  10
1531879.42
  20
2797528.60
  30
136
  0
VERTEX
  8
INTERMEDIATE
  70
32
  10
1531877.81
  20
2797528.25
  30
136
  0
VERTEX
  8
INTERMEDIATE
  70
32
  10
1531876.16
  20
2797528.06
  30
136
  0
VERTEX
  8
INTERMEDIATE
  70
32
  10
1531874.89
  20
2797528.05
  30
136
  0
VERTEX
  8
INTERMEDIATE
  70
32
  10
1531873.61
  20
2797528.13
  30
136
  0
VERTEX
  8
INTERMEDIATE
  70
32
  10
1531872.34
  20
2797528.31
  30
136
  0
VERTEX
  8
INTERMEDIATE
  70
32
  10
1531870.64
  20
2797528.69
  30
136
  0
VERTEX
  8
INTERMEDIATE
  70
32
  10
1531868.96
  20
2797529.16
  30
136
  0
VERTEX
  8
INTERMEDIATE
  70
32
  10
1531865.69
  20
2797530.15
  30
136
  0
VERTEX
  8
INTERMEDIATE
  70
32
  10
1531864.11
  20
2797530.55
  30
136
  0
VERTEX
  8
INTERMEDIATE
  70
32
  10
1531862.58
  20
2797530.80
  30
136
  0
VERTEX
  8
INTERMEDIATE
  70
32
  10
1531861.09
  20
2797530.84
  30
136
  0
VERTEX
  8
INTERMEDIATE
  70
32
  10
1531859.72
  20
2797530.64
  30
136
  0
VERTEX
  8
INTERMEDIATE
  70
32
  10
1531858.71
  20
2797530.28
  30
136
  0
VERTEX
  8
INTERMEDIATE
  70
32
  10
1531857.95
  20
2797529.78
  30
136
  0
VERTEX
  8
INTERMEDIATE
  70
32
  10
1531857.40
  20
2797529.11
  30
136
  0
VERTEX
  8
INTERMEDIATE
  70
32
  10
1531857.06
  20
2797528.22
  30
136
  0
VERTEX
  8
INTERMEDIATE
  70
32
  10
1531856.94
  20
2797527.20
  30
136
  0
VERTEX
  8
INTERMEDIATE
  70
32
  10
1531856.99
  20
2797526.06
  30
136
  0
VERTEX
  8
INTERMEDIATE
  70
32
  10
1531857.79
  20
2797520.29
  30
136
  0
VERTEX
  8
INTERMEDIATE
  70
32
  10
1531857.96
  20
2797518.62
  30
136
  0
VERTEX
  8
INTERMEDIATE
  70
32
  10
1531858.05
  20
2797516.94
  30
136
  0
VERTEX
  8
INTERMEDIATE
  70
32
  10
1531858.03
  20
2797515.26
  30
136
  0
VERTEX
  8
INTERMEDIATE
  70
32
  10
1531857.85
  20
2797513.60
  30
136
  0
VERTEX
  8
INTERMEDIATE
  70
32
  10
1531857.50
  20
2797512.02
  30
136
  0
VERTEX
  8
INTERMEDIATE
  70
32
  10
1531857.00
  20
2797510.46
  30
136
  0
VERTEX
  8
INTERMEDIATE
  70
32
  10
1531856.38
  20
2797508.92
  30
136
  0
VERTEX
  8
INTERMEDIATE
  70
32
  10
1531855.68
  20
2797507.40
  30
136
  0
VERTEX
  8
INTERMEDIATE
  70
32
  10
1531854.85
  20
2797505.78
  30
136
  0
VERTEX
  8
INTERMEDIATE
  70
32
  10
1531853.97
  20
2797504.19
  30
136
  0
VERTEX
  8
INTERMEDIATE
  70
32
  10
1531853.05
  20
2797502.61
  30
136
  0
VERTEX
  8
INTERMEDIATE
  70
32
  10
1531852.08
  20
2797501.05
  30
136
  0
VERTEX
  8
INTERMEDIATE
  70
32
  10
1531851.09
  20
2797499.51
  30
136
  0
VERTEX
  8
INTERMEDIATE
  70
32
  10
1531850.06
  20
2797498.00
  30
136
  0
VERTEX
  8
INTERMEDIATE
  70
32
  10
1531848.99
  20
2797496.53
  30
136
  0
VERTEX
  8
INTERMEDIATE
  70
32
  10
1531847.88
  20
2797495.12
  30
136
  0
VERTEX
  8
INTERMEDIATE
  70
32
  10
1531846.72
  20
2797493.77
  30
136
  0
VERTEX
  8
INTERMEDIATE
  70
32
  10
1531845.48
  20
2797492.52
  30
136
  0
VERTEX
  8
INTERMEDIATE
  70
32
  10
1531844.13
  20
2797491.36
  30
136
  0
VERTEX
  8
INTERMEDIATE
  70
32
  10
1531840.01
  20
2797488.17
  30
136
  0
VERTEX
  8
INTERMEDIATE
  70
32
  10
1531839.01
  20
2797487.29
  30
136
  0
VERTEX
  8
INTERMEDIATE
  70
32
  10
1531838.10
  20
2797486.36
  30
136
  0
VERTEX
  8
INTERMEDIATE
  70
32
  10
1531837.31
  20
2797485.36
  30
136
  0
VERTEX
  8
INTERMEDIATE
  70
32
  10
1531836.54
  20
2797484.04
  30
136
  0
VERTEX
  8
INTERMEDIATE
  70
32
  10
1531835.93
  20
2797482.63
  30
136
  0
VERTEX
  8
INTERMEDIATE
  70
32
  10
1531834.84
  20
2797479.60
  30
136
  0
VERTEX
  8
INTERMEDIATE
  70
32
  10
1531834.24
  20
2797478.08
  30
136
  0
VERTEX
  8
INTERMEDIATE
  70
32
  10
1531833.54
  20
2797476.69
  30
136
  0
VERTEX
  8
INTERMEDIATE
  70
32
  10
1531832.61
  20
2797475.50
  30
136
  0
VERTEX
  8
INTERMEDIATE
  70
32
  10
1531831.23
  20
2797474.58
  30
136
  0
VERTEX
  8
INTERMEDIATE
  70
32
  10
1531829.41
  20
2797473.87
  30
136
  0
VERTEX
  8
INTERMEDIATE
  70
32
  10
1531827.30
  20
2797473.35
  30
136
  0
VERTEX
  8
INTERMEDIATE
  70
32
  10
1531825.03
  20
2797472.99
  30
136
  0
VERTEX
  8
INTERMEDIATE
  70
32
  10
1531822.72
  20
2797472.74
  30
136
  0
VERTEX
  8
INTERMEDIATE
  70
32
  10
1531818.59
  20
2797472.40
  30
136
  0
VERTEX
  8
INTERMEDIATE
  70
32
  10
1531817.02
  20
2797472.24
  30
136
  0
VERTEX
  8
INTERMEDIATE
  70
32
  10
1531815.99
  20
2797472.09
  30
136
  0
VERTEX
  8
INTERMEDIATE
  70
32
  10
1531815.64
  20
2797471.96
  30
136
  0
SEQEND
  8
INTERMEDIATE
  0
POLYLINE
  8
INTERMEDIATE
  70
8
  66
1
 62
0
 39
0
  0
VERTEX
  8
INTERMEDIATE
  70
32
  10
1531888.00
  20
2798009.01
  30
138
  0
VERTEX
  8
INTERMEDIATE
  70
32
  10
1531887.98
  20
2798009.03
  30
138
  0
VERTEX
  8
INTERMEDIATE
  70
32
  10
1531887.16
  20
2798010.52
  30
138
  0
VERTEX
  8
INTERMEDIATE
  70
32
  10
1531886.51
  20
2798012.15
  30
138
  0
VERTEX
  8
INTERMEDIATE
  70
32
  10
1531885.00
  20
2798017.23
  30
138
  0
VERTEX
  8
INTERMEDIATE
  70
32
  10
1531884.43
  20
2798018.86
  30
138
  0
VERTEX
  8
INTERMEDIATE
  70
32
  10
1531883.78
  20
2798020.46
  30
138
  0
VERTEX
  8
INTERMEDIATE
  70
32
  10
1531883.08
  20
2798021.92
  30
138
  0
VERTEX
  8
INTERMEDIATE
  70
32
  10
1531882.26
  20
2798023.29
  30
138
  0
VERTEX
  8
INTERMEDIATE
  70
32
  10
1531881.67
  20
2798024.08
  30
138
  0
VERTEX
  8
INTERMEDIATE
  70
32
  10
1531881.03
  20
2798024.80
  30
138
  0
VERTEX
  8
INTERMEDIATE
  70
32
  10
1531880.16
  20
2798025.61
  30
138
  0
VERTEX
  8
INTERMEDIATE
  70
32
  10
1531879.22
  20
2798026.35
  30
138
  0
VERTEX
  8
INTERMEDIATE
  70
32
  10
1531877.05
  20
2798027.82
  30
138
  0
VERTEX
  8
INTERMEDIATE
  70
32
  10
1531875.88
  20
2798028.66
  30
138
  0
VERTEX
  8
INTERMEDIATE
  70
32
  10
1531874.62
  20
2798029.75
  30
138
  0
VERTEX
  8
INTERMEDIATE
  70
32
  10
1531873.43
  20
2798030.97
  30
138
  0
VERTEX
  8
INTERMEDIATE
  70
32
  10
1531872.49
  20
2798032.04
  30
138
  0
VERTEX
  8
INTERMEDIATE
  70
32
  10
1531871.57
  20
2798033.17
  30
138
  0
VERTEX
  8
INTERMEDIATE
  70
32
  10
1531870.68
  20
2798034.33
  30
138
  0
VERTEX
  8
INTERMEDIATE
  70
32
  10
1531869.83
  20
2798035.53
  30
138
  0
VERTEX
  8
INTERMEDIATE
  70
32
  10
1531868.97
  20
2798036.85
  30
138
  0
VERTEX
  8
INTERMEDIATE
  70
32
  10
1531868.18
  20
2798038.21
  30
138
  0
VERTEX
  8
INTERMEDIATE
  70
32
  10
1531867.50
  20
2798039.62
  30
138
  0
VERTEX
  8
INTERMEDIATE
  70
32
  10
1531866.99
  20
2798040.93
  30
138
  0
VERTEX
  8
INTERMEDIATE
  70
32
  10
1531865.32
  20
2798046.11
  30
138
  0
VERTEX
  8
INTERMEDIATE
  70
32
  10
1531864.87
  20
2798047.33
  30
138
  0
VERTEX
  8
INTERMEDIATE
  70
32
  10
1531863.34
  20
2798050.99
  30
138
  0
VERTEX
  8
INTERMEDIATE
  70
32
  10
1531862.84
  20
2798052.33
  30
138
  0
VERTEX
  8
INTERMEDIATE
  70
32
  10
1531862.44
  20
2798053.69
  30
138
  0
VERTEX
  8
INTERMEDIATE
  70
32
  10
1531862.16
  20
2798055.30
  30
138
  0
VERTEX
  8
INTERMEDIATE
  70
32
  10
1531862.02
  20
2798056.95
  30
138
  0
VERTEX
  8
INTERMEDIATE
  70
32
  10
1531861.97
  20
2798058.62
  30
138
  0
VERTEX
  8
INTERMEDIATE
  70
32
  10
1531861.96
  20
2798063.55
  30
138
  0
VERTEX
  8
INTERMEDIATE
  70
32
  10
1531861.88
  20
2798065.12
  30
138
  0
VERTEX
  8
INTERMEDIATE
  70
32
  10
1531861.73
  20
2798066.62
  30
138
  0
VERTEX
  8
INTERMEDIATE
  70
32
  10
1531861.20
  20
2798069.47
  30
138
  0
VERTEX
  8
INTERMEDIATE
  70
32
  10
1531861.07
  20
2798070.75
  30
138
  0
VERTEX
  8
INTERMEDIATE
  70
32
  10
1531861.19
  20
2798071.94
  30
138
  0
VERTEX
  8
INTERMEDIATE
  70
32
  10
1531861.71
  20
2798073.06
  30
138
  0
VERTEX
  8
INTERMEDIATE
  70
32
  10
1531862.59
  20
2798074.07
  30
138
  0
VERTEX
  8
INTERMEDIATE
  70
32
  10
1531863.73
  20
2798074.95
  30
138
  0
VERTEX
  8
INTERMEDIATE
  70
32
  10
1531865.07
  20
2798075.69
  30
138
  0
VERTEX
  8
INTERMEDIATE
  70
32
  10
1531869.72
  20
2798077.71
  30
138
  0
VERTEX
  8
INTERMEDIATE
  70
32
  10
1531870.80
  20
2798078.23
  30
138
  0
VERTEX
  8
INTERMEDIATE
  70
32
  10
1531871.86
  20
2798078.80
  30
138
  0
VERTEX
  8
INTERMEDIATE
  70
32
  10
1531872.99
  20
2798079.45
  30
138
  0
VERTEX
  8
INTERMEDIATE
  70
32
  10
1531874.28
  20
2798080.25
  30
138
  0
VERTEX
  8
INTERMEDIATE
  70
32
  10
1531876.81
  20
2798081.99
  30
138
  0
VERTEX
  8
INTERMEDIATE
  70
32
  10
1531881.09
  20
2798085.08
  30
138
  0
VERTEX
  8
INTERMEDIATE
  70
32
  10
1531882.70
  20
2798086.15
  30
138
  0
VERTEX
  8
INTERMEDIATE
  70
32
  10
1531884.32
  20
2798087.15
  30
138
  0
VERTEX
  8
INTERMEDIATE
  70
32
  10
1531887.45
  20
2798088.92
  30
138
  0
VERTEX
  8
INTERMEDIATE
  70
32
  10
1531888.00
  20
2798089.27
  30
138
  0
SEQEND
  8
INTERMEDIATE
  0
POLYLINE
  8
INTERMEDIATE
  70
8
  66
1
 62
0
 39
0
  0
VERTEX
  8
INTERMEDIATE
  70
32
  10
1531888.00
  20
2798241.56
  30
138
  0
VERTEX
  8
INTERMEDIATE
  70
32
  10
1531887.48
  20
2798241.95
  30
138
  0
VERTEX
  8
INTERMEDIATE
  70
32
  10
1531886.37
  20
2798242.86
  30
138
  0
VERTEX
  8
INTERMEDIATE
  70
32
  10
1531882.43
  20
2798246.25
  30
138
  0
VERTEX
  8
INTERMEDIATE
  70
32
  10
1531880.95
  20
2798247.40
  30
138
  0
VERTEX
  8
INTERMEDIATE
  70
32
  10
1531879.74
  20
2798248.21
  30
138
  0
VERTEX
  8
INTERMEDIATE
  70
32
  10
1531878.49
  20
2798248.95
  30
138
  0
VERTEX
  8
INTERMEDIATE
  70
32
  10
1531877.20
  20
2798249.63
  30
138
  0
VERTEX
  8
INTERMEDIATE
  70
32
  10
1531875.88
  20
2798250.25
  30
138
  0
VERTEX
  8
INTERMEDIATE
  70
32
  10
1531874.20
  20
2798250.93
  30
138
  0
VERTEX
  8
INTERMEDIATE
  70
32
  10
1531872.49
  20
2798251.51
  30
138
  0
VERTEX
  8
INTERMEDIATE
  70
32
  10
1531870.76
  20
2798252.01
  30
138
  0
VERTEX
  8
INTERMEDIATE
  70
32
  10
1531869.24
  20
2798252.38
  30
138
  0
VERTEX
  8
INTERMEDIATE
  70
32
  10
1531867.72
  20
2798252.68
  30
138
  0
VERTEX
  8
INTERMEDIATE
  70
32
  10
1531866.19
  20
2798252.93
  30
138
  0
VERTEX
  8
INTERMEDIATE
  70
32
  10
1531864.30
  20
2798253.13
  30
138
  0
VERTEX
  8
INTERMEDIATE
  70
32
  10
1531862.21
  20
2798253.20
  30
138
  0
VERTEX
  8
INTERMEDIATE
  70
32
  10
1531860.00
  20
2798253.14
  30
138
  0
VERTEX
  8
INTERMEDIATE
  70
32
  10
1531858.01
  20
2798252.95
  30
138
  0
VERTEX
  8
INTERMEDIATE
  70
32
  10
1531850.27
  20
2798251.95
  30
138
  0
VERTEX
  8
INTERMEDIATE
  70
32
  10
1531847.71
  20
2798251.69
  30
138
  0
VERTEX
  8
INTERMEDIATE
  70
32
  10
1531847.14
  20
2798251.66
  30
138
  0
VERTEX
  8
INTERMEDIATE
  70
32
  10
1531847.08
  20
2798251.68
  30
138
  0
SEQEND
  8
INTERMEDIATE
  0
POLYLINE
  8
INTERMEDIATE
  70
8
  66
1
 62
0
 39
0
  0
VERTEX
  8
INTERMEDIATE
  70
32
  10
1531833.45
  20
2797913.55
  30
138
  0
VERTEX
  8
INTERMEDIATE
  70
32
  10
1531833.68
  20
2797913.32
  30
138
  0
VERTEX
  8
INTERMEDIATE
  70
32
  10
1531834.26
  20
2797912.64
  30
138
  0
VERTEX
  8
INTERMEDIATE
  70
32
  10
1531835.02
  20
2797911.69
  30
138
  0
VERTEX
  8
INTERMEDIATE
  70
32
  10
1531837.46
  20
2797908.44
  30
138
  0
VERTEX
  8
INTERMEDIATE
  70
32
  10
1531840.34
  20
2797904.36
  30
138
  0
VERTEX
  8
INTERMEDIATE
  70
32
  10
1531843.78
  20
2797899.36
  30
138
  0
VERTEX
  8
INTERMEDIATE
  70
32
  10
1531844.80
  20
2797897.92
  30
138
  0
VERTEX
  8
INTERMEDIATE
  70
32
  10
1531846.00
  20
2797896.33
  30
138
  0
VERTEX
  8
INTERMEDIATE
  70
32
  10
1531852.22
  20
2797888.59
  30
138
  0
VERTEX
  8
INTERMEDIATE
  70
32
  10
1531854.31
  20
2797885.92
  30
138
  0
VERTEX
  8
INTERMEDIATE
  70
32
  10
1531855.48
  20
2797884.37
  30
138
  0
VERTEX
  8
INTERMEDIATE
  70
32
  10
1531857.75
  20
2797881.21
  30
138
  0
VERTEX
  8
INTERMEDIATE
  70
32
  10
1531859.92
  20
2797877.99
  30
138
  0
VERTEX
  8
INTERMEDIATE
  70
32
  10
1531864.96
  20
2797869.96
  30
138
  0
VERTEX
  8
INTERMEDIATE
  70
32
  10
1531866.52
  20
2797867.67
  30
138
  0
VERTEX
  8
INTERMEDIATE
  70
32
  10
1531867.65
  20
2797866.17
  30
138
  0
VERTEX
  8
INTERMEDIATE
  70
32
  10
1531868.80
  20
2797864.69
  30
138
  0
VERTEX
  8
INTERMEDIATE
  70
32
  10
1531874.52
  20
2797857.74
  30
138
  0
VERTEX
  8
INTERMEDIATE
  70
32
  10
1531876.26
  20
2797855.59
  30
138
  0
VERTEX
  8
INTERMEDIATE
  70
32
  10
1531878.33
  20
2797852.94
  30
138
  0
VERTEX
  8
INTERMEDIATE
  70
32
  10
1531879.33
  20
2797851.59
  30
138
  0
VERTEX
  8
INTERMEDIATE
  70
32
  10
1531880.83
  20
2797849.43
  30
138
  0
VERTEX
  8
INTERMEDIATE
  70
32
  10
1531881.77
  20
2797847.97
  30
138
  0
VERTEX
  8
INTERMEDIATE
  70
32
  10
1531882.66
  20
2797846.48
  30
138
  0
VERTEX
  8
INTERMEDIATE
  70
32
  10
1531883.48
  20
2797844.96
  30
138
  0
VERTEX
  8
INTERMEDIATE
  70
32
  10
1531884.30
  20
2797843.23
  30
138
  0
VERTEX
  8
INTERMEDIATE
  70
32
  10
1531885.04
  20
2797841.47
  30
138
  0
VERTEX
  8
INTERMEDIATE
  70
32
  10
1531885.72
  20
2797839.68
  30
138
  0
VERTEX
  8
INTERMEDIATE
  70
32
  10
1531887.45
  20
2797834.73
  30
138
  0
VERTEX
  8
INTERMEDIATE
  70
32
  10
1531888.00
  20
2797833.24
  30
138
  0
SEQEND
  8
INTERMEDIATE
  0
POLYLINE
  8
INTERMEDIATE
  70
8
  66
1
 62
0
 39
0
  0
VERTEX
  8
INTERMEDIATE
  70
32
  10
1531888.00
  20
2797648.24
  30
138
  0
VERTEX
  8
INTERMEDIATE
  70
32
  10
1531887.41
  20
2797643.89
  30
138
  0
VERTEX
  8
INTERMEDIATE
  70
32
  10
1531886.25
  20
2797635.93
  30
138
  0
VERTEX
  8
INTERMEDIATE
  70
32
  10
1531886.05
  20
2797634.33
  30
138
  0
VERTEX
  8
INTERMEDIATE
  70
32
  10
1531885.90
  20
2797632.77
  30
138
  0
VERTEX
  8
INTERMEDIATE
  70
32
  10
1531885.81
  20
2797631.17
  30
138
  0
VERTEX
  8
INTERMEDIATE
  70
32
  10
1531885.78
  20
2797629.58
  30
138
  0
VERTEX
  8
INTERMEDIATE
  70
32
  10
1531885.82
  20
2797627.98
  30
138
  0
VERTEX
  8
INTERMEDIATE
  70
32
  10
1531885.92
  20
2797626.39
  30
138
  0
VERTEX
  8
INTERMEDIATE
  70
32
  10
1531886.09
  20
2797624.81
  30
138
  0
VERTEX
  8
INTERMEDIATE
  70
32
  10
1531886.31
  20
2797623.38
  30
138
  0
VERTEX
  8
INTERMEDIATE
  70
32
  10
1531886.59
  20
2797621.95
  30
138
  0
VERTEX
  8
INTERMEDIATE
  70
32
  10
1531887.01
  20
2797620.06
  30
138
  0
VERTEX
  8
INTERMEDIATE
  70
32
  10
1531887.48
  20
2797618.17
  30
138
  0
VERTEX
  8
INTERMEDIATE
  70
32
  10
1531888.00
  20
2797616.32
  30
138
  0
SEQEND
  8
INTERMEDIATE
  0
POLYLINE
  8
INDEX
  70
8
  66
1
 62
0
 39
0
  0
VERTEX
  8
INDEX
  70
32
  10
1531888.00
  20
2797993.22
  30
140
  0
VERTEX
  8
INDEX
  70
32
  10
1531887.92
  20
2797993.31
  30
140
  0
VERTEX
  8
INDEX
  70
32
  10
1531886.98
  20
2797994.46
  30
140
  0
VERTEX
  8
INDEX
  70
32
  10
1531885.96
  20
2797995.86
  30
140
  0
VERTEX
  8
INDEX
  70
32
  10
1531884.47
  20
2797998.29
  30
140
  0
VERTEX
  8
INDEX
  70
32
  10
1531883.47
  20
2797999.82
  30
140
  0
VERTEX
  8
INDEX
  70
32
  10
1531882.39
  20
2798001.34
  30
140
  0
VERTEX
  8
INDEX
  70
32
  10
1531881.21
  20
2798002.81
  30
140
  0
VERTEX
  8
INDEX
  70
32
  10
1531879.99
  20
2798004.19
  30
140
  0
VERTEX
  8
INDEX
  70
32
  10
1531876.43
  20
2798007.90
  30
140
  0
VERTEX
  8
INDEX
  70
32
  10
1531874.54
  20
2798009.97
  30
140
  0
VERTEX
  8
INDEX
  70
32
  10
1531873.31
  20
2798011.44
  30
140
  0
VERTEX
  8
INDEX
  70
32
  10
1531868.86
  20
2798017.07
  30
140
  0
VERTEX
  8
INDEX
  70
32
  10
1531867.07
  20
2798019.21
  30
140
  0
VERTEX
  8
INDEX
  70
32
  10
1531863.69
  20
2798023.14
  30
140
  0
VERTEX
  8
INDEX
  70
32
  10
1531859.27
  20
2798028.73
  30
140
  0
VERTEX
  8
INDEX
  70
32
  10
1531857.40
  20
2798030.93
  30
140
  0
VERTEX
  8
INDEX
  70
32
  10
1531856.39
  20
2798032.00
  30
140
  0
VERTEX
  8
INDEX
  70
32
  10
1531855.30
  20
2798033.00
  30
140
  0
VERTEX
  8
INDEX
  70
32
  10
1531853.98
  20
2798033.91
  30
140
  0
VERTEX
  8
INDEX
  70
32
  10
1531852.35
  20
2798034.72
  30
140
  0
VERTEX
  8
INDEX
  70
32
  10
1531850.55
  20
2798035.35
  30
140
  0
VERTEX
  8
INDEX
  70
32
  10
1531848.64
  20
2798035.78
  30
140
  0
VERTEX
  8
INDEX
  70
32
  10
1531846.30
  20
2798036.07
  30
140
  0
VERTEX
  8
INDEX
  70
32
  10
1531844.04
  20
2798036.19
  30
140
  0
VERTEX
  8
INDEX
  70
32
  10
1531840.30
  20
2798036.29
  30
140
  0
VERTEX
  8
INDEX
  70
32
  10
1531839.28
  20
2798036.38
  30
140
  0
VERTEX
  8
INDEX
  70
32
  10
1531838.62
  20
2798036.51
  30
140
  0
VERTEX
  8
INDEX
  70
32
  10
1531838.41
  20
2798036.65
  30
140
  0
SEQEND
  8
INDEX
  0
POLYLINE
  8
INDEX
  70
8
  66
1
 62
0
 39
0
  0
VERTEX
  8
INDEX
  70
32
  10
1531833.58
  20
2797916.87
  30
140
  0
VERTEX
  8
INDEX
  70
32
  10
1531833.83
  20
2797916.72
  30
140
  0
VERTEX
  8
INDEX
  70
32
  10
1531834.46
  20
2797916.25
  30
140
  0
VERTEX
  8
INDEX
  70
32
  10
1531835.32
  20
2797915.55
  30
140
  0
VERTEX
  8
INDEX
  70
32
  10
1531836.37
  20
2797914.60
  30
140
  0
VERTEX
  8
INDEX
  70
32
  10
1531837.56
  20
2797913.41
  30
140
  0
VERTEX
  8
INDEX
  70
32
  10
1531838.85
  20
2797912.03
  30
140
  0
VERTEX
  8
INDEX
  70
32
  10
1531840.18
  20
2797910.49
  30
140
  0
VERTEX
  8
INDEX
  70
32
  10
1531842.86
  20
2797907.20
  30
140
  0
VERTEX
  8
INDEX
  70
32
  10
1531844.35
  20
2797905.27
  30
140
  0
VERTEX
  8
INDEX
  70
32
  10
1531848.30
  20
2797899.98
  30
140
  0
VERTEX
  8
INDEX
  70
32
  10
1531850.68
  20
2797897.07
  30
140
  0
VERTEX
  8
INDEX
  70
32
  10
1531853.54
  20
2797893.72
  30
140
  0
VERTEX
  8
INDEX
  70
32
  10
1531855.32
  20
2797891.48
  30
140
  0
VERTEX
  8
INDEX
  70
32
  10
1531859.43
  20
2797885.82
  30
140
  0
VERTEX
  8
INDEX
  70
32
  10
1531862.43
  20
2797881.51
  30
140
  0
VERTEX
  8
INDEX
  70
32
  10
1531864.39
  20
2797878.51
  30
140
  0
VERTEX
  8
INDEX
  70
32
  10
1531868.26
  20
2797872.11
  30
140
  0
VERTEX
  8
INDEX
  70
32
  10
1531869.09
  20
2797870.83
  30
140
  0
VERTEX
  8
INDEX
  70
32
  10
1531869.92
  20
2797869.65
  30
140
  0
VERTEX
  8
INDEX
  70
32
  10
1531871.82
  20
2797867.15
  30
140
  0
VERTEX
  8
INDEX
  70
32
  10
1531876.85
  20
2797860.78
  30
140
  0
VERTEX
  8
INDEX
  70
32
  10
1531880.80
  20
2797855.63
  30
140
  0
VERTEX
  8
INDEX
  70
32
  10
1531882.73
  20
2797853.07
  30
140
  0
VERTEX
  8
INDEX
  70
32
  10
1531884.89
  20
2797849.99
  30
140
  0
VERTEX
  8
INDEX
  70
32
  10
1531885.92
  20
2797848.41
  30
140
  0
VERTEX
  8
INDEX
  70
32
  10
1531886.89
  20
2797846.81
  30
140
  0
VERTEX
  8
INDEX
  70
32
  10
1531887.80
  20
2797845.19
  30
140
  0
VERTEX
  8
INDEX
  70
32
  10
1531888.00
  20
2797844.80
  30
140
  0
SEQEND
  8
INDEX
  0
POLYLINE
  8
INTERMEDIATE
  70
8
  66
1
 62
0
 39
0
  0
VERTEX
  8
INTERMEDIATE
  70
32
  10
1531888.00
  20
2797979.29
  30
142
  0
VERTEX
  8
INTERMEDIATE
  70
32
  10
1531887.23
  20
2797979.74
  30
142
  0
VERTEX
  8
INTERMEDIATE
  70
32
  10
1531886.05
  20
2797980.58
  30
142
  0
VERTEX
  8
INTERMEDIATE
  70
32
  10
1531883.67
  20
2797982.36
  30
142
  0
VERTEX
  8
INTERMEDIATE
  70
32
  10
1531879.79
  20
2797985.01
  30
142
  0
VERTEX
  8
INTERMEDIATE
  70
32
  10
1531878.51
  20
2797985.95
  30
142
  0
VERTEX
  8
INTERMEDIATE
  70
32
  10
1531877.30
  20
2797986.97
  30
142
  0
VERTEX
  8
INTERMEDIATE
  70
32
  10
1531876.30
  20
2797988.00
  30
142
  0
VERTEX
  8
INTERMEDIATE
  70
32
  10
1531875.40
  20
2797989.11
  30
142
  0
VERTEX
  8
INTERMEDIATE
  70
32
  10
1531874.60
  20
2797990.28
  30
142
  0
VERTEX
  8
INTERMEDIATE
  70
32
  10
1531873.20
  20
2797992.77
  30
142
  0
VERTEX
  8
INTERMEDIATE
  70
32
  10
1531872.46
  20
2797993.97
  30
142
  0
VERTEX
  8
INTERMEDIATE
  70
32
  10
1531871.65
  20
2797995.14
  30
142
  0
VERTEX
  8
INTERMEDIATE
  70
32
  10
1531870.75
  20
2797996.27
  30
142
  0
VERTEX
  8
INTERMEDIATE
  70
32
  10
1531869.76
  20
2797997.35
  30
142
  0
VERTEX
  8
INTERMEDIATE
  70
32
  10
1531868.56
  20
2797998.47
  30
142
  0
VERTEX
  8
INTERMEDIATE
  70
32
  10
1531867.28
  20
2797999.52
  30
142
  0
VERTEX
  8
INTERMEDIATE
  70
32
  10
1531864.48
  20
2798001.59
  30
142
  0
VERTEX
  8
INTERMEDIATE
  70
32
  10
1531861.47
  20
2798003.64
  30
142
  0
VERTEX
  8
INTERMEDIATE
  70
32
  10
1531854.43
  20
2798008.12
  30
142
  0
VERTEX
  8
INTERMEDIATE
  70
32
  10
1531852.89
  20
2798009.05
  30
142
  0
VERTEX
  8
INTERMEDIATE
  70
32
  10
1531851.18
  20
2798009.94
  30
142
  0
VERTEX
  8
INTERMEDIATE
  70
32
  10
1531849.49
  20
2798010.69
  30
142
  0
VERTEX
  8
INTERMEDIATE
  70
32
  10
1531847.71
  20
2798011.26
  30
142
  0
VERTEX
  8
INTERMEDIATE
  70
32
  10
1531846.05
  20
2798011.57
  30
142
  0
VERTEX
  8
INTERMEDIATE
  70
32
  10
1531844.38
  20
2798011.71
  30
142
  0
VERTEX
  8
INTERMEDIATE
  70
32
  10
1531842.78
  20
2798011.70
  30
142
  0
VERTEX
  8
INTERMEDIATE
  70
32
  10
1531841.40
  20
2798011.60
  30
142
  0
VERTEX
  8
INTERMEDIATE
  70
32
  10
1531837.76
  20
2798011.17
  30
142
  0
VERTEX
  8
INTERMEDIATE
  70
32
  10
1531837.38
  20
2798011.14
  30
142
  0
SEQEND
  8
INTERMEDIATE
  0
POLYLINE
  8
INTERMEDIATE
  70
8
  66
1
 62
0
 39
0
  0
VERTEX
  8
INTERMEDIATE
  70
32
  10
1531833.93
  20
2797925.67
  30
142
  0
VERTEX
  8
INTERMEDIATE
  70
32
  10
1531833.94
  20
2797925.61
  30
142
  0
VERTEX
  8
INTERMEDIATE
  70
32
  10
1531834.21
  20
2797925.13
  30
142
  0
VERTEX
  8
INTERMEDIATE
  70
32
  10
1531834.82
  20
2797924.26
  30
142
  0
VERTEX
  8
INTERMEDIATE
  70
32
  10
1531848.12
  20
2797907.26
  30
142
  0
VERTEX
  8
INTERMEDIATE
  70
32
  10
1531850.16
  20
2797904.80
  30
142
  0
VERTEX
  8
INTERMEDIATE
  70
32
  10
1531851.41
  20
2797903.42
  30
142
  0
VERTEX
  8
INTERMEDIATE
  70
32
  10
1531854.80
  20
2797899.78
  30
142
  0
VERTEX
  8
INTERMEDIATE
  70
32
  10
1531855.93
  20
2797898.51
  30
142
  0
VERTEX
  8
INTERMEDIATE
  70
32
  10
1531857.02
  20
2797897.21
  30
142
  0
VERTEX
  8
INTERMEDIATE
  70
32
  10
1531858.07
  20
2797895.88
  30
142
  0
VERTEX
  8
INTERMEDIATE
  70
32
  10
1531859.08
  20
2797894.51
  30
142
  0
VERTEX
  8
INTERMEDIATE
  70
32
  10
1531860.03
  20
2797893.11
  30
142
  0
VERTEX
  8
INTERMEDIATE
  70
32
  10
1531860.82
  20
2797891.85
  30
142
  0
VERTEX
  8
INTERMEDIATE
  70
32
  10
1531863.97
  20
2797886.48
  30
142
  0
VERTEX
  8
INTERMEDIATE
  70
32
  10
1531867.69
  20
2797880.46
  30
142
  0
VERTEX
  8
INTERMEDIATE
  70
32
  10
1531871.08
  20
2797874.72
  30
142
  0
VERTEX
  8
INTERMEDIATE
  70
32
  10
1531872.06
  20
2797873.21
  30
142
  0
VERTEX
  8
INTERMEDIATE
  70
32
  10
1531873.00
  20
2797871.87
  30
142
  0
VERTEX
  8
INTERMEDIATE
  70
32
  10
1531873.99
  20
2797870.56
  30
142
  0
VERTEX
  8
INTERMEDIATE
  70
32
  10
1531877.54
  20
2797865.99
  30
142
  0
VERTEX
  8
INTERMEDIATE
  70
32
  10
1531879.87
  20
2797862.91
  30
142
  0
VERTEX
  8
INTERMEDIATE
  70
32
  10
1531886.07
  20
2797854.52
  30
142
  0
VERTEX
  8
INTERMEDIATE
  70
32
  10
1531887.74
  20
2797852.15
  30
142
  0
VERTEX
  8
INTERMEDIATE
  70
32
  10
1531888.00
  20
2797851.76
  30
142
  0
SEQEND
  8
INTERMEDIATE
  0
POLYLINE
  8
INTERMEDIATE
  70
8
  66
1
 62
0
 39
0
  0
VERTEX
  8
INTERMEDIATE
  70
32
  10
1531888.00
  20
2797968.34
  30
144
  0
VERTEX
  8
INTERMEDIATE
  70
32
  10
1531887.31
  20
2797968.68
  30
144
  0
VERTEX
  8
INTERMEDIATE
  70
32
  10
1531886.17
  20
2797969.17
  30
144
  0
VERTEX
  8
INTERMEDIATE
  70
32
  10
1531884.65
  20
2797969.68
  30
144
  0
VERTEX
  8
INTERMEDIATE
  70
32
  10
1531883.11
  20
2797970.07
  30
144
  0
VERTEX
  8
INTERMEDIATE
  70
32
  10
1531881.55
  20
2797970.34
  30
144
  0
VERTEX
  8
INTERMEDIATE
  70
32
  10
1531877.80
  20
2797970.79
  30
144
  0
VERTEX
  8
INTERMEDIATE
  70
32
  10
1531876.34
  20
2797971.01
  30
144
  0
VERTEX
  8
INTERMEDIATE
  70
32
  10
1531874.87
  20
2797971.28
  30
144
  0
VERTEX
  8
INTERMEDIATE
  70
32
  10
1531873.39
  20
2797971.60
  30
144
  0
VERTEX
  8
INTERMEDIATE
  70
32
  10
1531871.96
  20
2797971.96
  30
144
  0
VERTEX
  8
INTERMEDIATE
  70
32
  10
1531870.52
  20
2797972.37
  30
144
  0
VERTEX
  8
INTERMEDIATE
  70
32
  10
1531869.11
  20
2797972.83
  30
144
  0
VERTEX
  8
INTERMEDIATE
  70
32
  10
1531867.70
  20
2797973.34
  30
144
  0
VERTEX
  8
INTERMEDIATE
  70
32
  10
1531864.47
  20
2797974.64
  30
144
  0
VERTEX
  8
INTERMEDIATE
  70
32
  10
1531858.82
  20
2797976.83
  30
144
  0
VERTEX
  8
INTERMEDIATE
  70
32
  10
1531851.82
  20
2797979.69
  30
144
  0
VERTEX
  8
INTERMEDIATE
  70
32
  10
1531849.58
  20
2797980.55
  30
144
  0
VERTEX
  8
INTERMEDIATE
  70
32
  10
1531847.11
  20
2797981.43
  30
144
  0
VERTEX
  8
INTERMEDIATE
  70
32
  10
1531840.17
  20
2797983.76
  30
144
  0
VERTEX
  8
INTERMEDIATE
  70
32
  10
1531838.42
  20
2797984.37
  30
144
  0
VERTEX
  8
INTERMEDIATE
  70
32
  10
1531837.29
  20
2797984.80
  30
144
  0
VERTEX
  8
INTERMEDIATE
  70
32
  10
1531836.58
  20
2797985.10
  30
144
  0
VERTEX
  8
INTERMEDIATE
  70
32
  10
1531836.34
  20
2797985.23
  30
144
  0
SEQEND
  8
INTERMEDIATE
  0
POLYLINE
  8
INTERMEDIATE
  70
8
  66
1
 62
0
 39
0
  0
VERTEX
  8
INTERMEDIATE
  70
32
  10
1531834.61
  20
2797942.37
  30
144
  0
VERTEX
  8
INTERMEDIATE
  70
32
  10
1531834.88
  20
2797941.60
  30
144
  0
VERTEX
  8
INTERMEDIATE
  70
32
  10
1531836.01
  20
2797937.97
  30
144
  0
VERTEX
  8
INTERMEDIATE
  70
32
  10
1531836.67
  20
2797936.08
  30
144
  0
VERTEX
  8
INTERMEDIATE
  70
32
  10
1531837.44
  20
2797934.02
  30
144
  0
VERTEX
  8
INTERMEDIATE
  70
32
  10
1531838.90
  20
2797930.34
  30
144
  0
VERTEX
  8
INTERMEDIATE
  70
32
  10
1531839.68
  20
2797928.53
  30
144
  0
VERTEX
  8
INTERMEDIATE
  70
32
  10
1531840.46
  20
2797926.82
  30
144
  0
VERTEX
  8
INTERMEDIATE
  70
32
  10
1531841.17
  20
2797925.38
  30
144
  0
VERTEX
  8
INTERMEDIATE
  70
32
  10
1531841.87
  20
2797924.11
  30
144
  0
VERTEX
  8
INTERMEDIATE
  70
32
  10
1531842.86
  20
2797922.49
  30
144
  0
VERTEX
  8
INTERMEDIATE
  70
32
  10
1531843.91
  20
2797920.91
  30
144
  0
VERTEX
  8
INTERMEDIATE
  70
32
  10
1531845.01
  20
2797919.36
  30
144
  0
VERTEX
  8
INTERMEDIATE
  70
32
  10
1531846.14
  20
2797917.83
  30
144
  0
VERTEX
  8
INTERMEDIATE
  70
32
  10
1531848.48
  20
2797914.82
  30
144
  0
VERTEX
  8
INTERMEDIATE
  70
32
  10
1531849.68
  20
2797913.34
  30
144
  0
VERTEX
  8
INTERMEDIATE
  70
32
  10
1531851.93
  20
2797910.69
  30
144
  0
VERTEX
  8
INTERMEDIATE
  70
32
  10
1531856.97
  20
2797905.23
  30
144
  0
VERTEX
  8
INTERMEDIATE
  70
32
  10
1531858.88
  20
2797903.03
  30
144
  0
VERTEX
  8
INTERMEDIATE
  70
32
  10
1531861.03
  20
2797900.33
  30
144
  0
VERTEX
  8
INTERMEDIATE
  70
32
  10
1531863.03
  20
2797897.62
  30
144
  0
VERTEX
  8
INTERMEDIATE
  70
32
  10
1531863.97
  20
2797896.23
  30
144
  0
VERTEX
  8
INTERMEDIATE
  70
32
  10
1531864.86
  20
2797894.80
  30
144
  0
VERTEX
  8
INTERMEDIATE
  70
32
  10
1531865.66
  20
2797893.36
  30
144
  0
VERTEX
  8
INTERMEDIATE
  70
32
  10
1531866.41
  20
2797891.89
  30
144
  0
VERTEX
  8
INTERMEDIATE
  70
32
  10
1531868.54
  20
2797887.40
  30
144
  0
VERTEX
  8
INTERMEDIATE
  70
32
  10
1531869.83
  20
2797884.83
  30
144
  0
VERTEX
  8
INTERMEDIATE
  70
32
  10
1531871.27
  20
2797882.13
  30
144
  0
VERTEX
  8
INTERMEDIATE
  70
32
  10
1531872.17
  20
2797880.52
  30
144
  0
VERTEX
  8
INTERMEDIATE
  70
32
  10
1531873.18
  20
2797878.82
  30
144
  0
VERTEX
  8
INTERMEDIATE
  70
32
  10
1531874.24
  20
2797877.16
  30
144
  0
VERTEX
  8
INTERMEDIATE
  70
32
  10
1531875.35
  20
2797875.52
  30
144
  0
VERTEX
  8
INTERMEDIATE
  70
32
  10
1531879.10
  20
2797870.38
  30
144
  0
VERTEX
  8
INTERMEDIATE
  70
32
  10
1531883.25
  20
2797864.59
  30
144
  0
VERTEX
  8
INTERMEDIATE
  70
32
  10
1531887.67
  20
2797858.34
  30
144
  0
VERTEX
  8
INTERMEDIATE
  70
32
  10
1531888.00
  20
2797857.86
  30
144
  0
SEQEND
  8
INTERMEDIATE
  0
POLYLINE
  8
INTERMEDIATE
  70
8
  66
1
 62
0
 39
0
  0
VERTEX
  8
INTERMEDIATE
  70
32
  10
1531888.00
  20
2797953.97
  30
146
  0
VERTEX
  8
INTERMEDIATE
  70
32
  10
1531887.20
  20
2797954.58
  30
146
  0
VERTEX
  8
INTERMEDIATE
  70
32
  10
1531885.08
  20
2797956.34
  30
146
  0
VERTEX
  8
INTERMEDIATE
  70
32
  10
1531884.02
  20
2797957.17
  30
146
  0
VERTEX
  8
INTERMEDIATE
  70
32
  10
1531882.61
  20
2797958.09
  30
146
  0
VERTEX
  8
INTERMEDIATE
  70
32
  10
1531881.13
  20
2797958.80
  30
146
  0
VERTEX
  8
INTERMEDIATE
  70
32
  10
1531880.33
  20
2797959.07
  30
146
  0
VERTEX
  8
INTERMEDIATE
  70
32
  10
1531876.13
  20
2797960.07
  30
146
  0
VERTEX
  8
INTERMEDIATE
  70
32
  10
1531873.15
  20
2797960.90
  30
146
  0
VERTEX
  8
INTERMEDIATE
  70
32
  10
1531868.44
  20
2797962.40
  30
146
  0
VERTEX
  8
INTERMEDIATE
  70
32
  10
1531861.79
  20
2797964.65
  30
146
  0
VERTEX
  8
INTERMEDIATE
  70
32
  10
1531860.09
  20
2797965.15
  30
146
  0
VERTEX
  8
INTERMEDIATE
  70
32
  10
1531858.59
  20
2797965.50
  30
146
  0
VERTEX
  8
INTERMEDIATE
  70
32
  10
1531857.10
  20
2797965.72
  30
146
  0
VERTEX
  8
INTERMEDIATE
  70
32
  10
1531855.63
  20
2797965.78
  30
146
  0
VERTEX
  8
INTERMEDIATE
  70
32
  10
1531854.20
  20
2797965.65
  30
146
  0
VERTEX
  8
INTERMEDIATE
  70
32
  10
1531852.60
  20
2797965.20
  30
146
  0
VERTEX
  8
INTERMEDIATE
  70
32
  10
1531851.08
  20
2797964.48
  30
146
  0
VERTEX
  8
INTERMEDIATE
  70
32
  10
1531849.68
  20
2797963.53
  30
146
  0
VERTEX
  8
INTERMEDIATE
  70
32
  10
1531848.41
  20
2797962.37
  30
146
  0
VERTEX
  8
INTERMEDIATE
  70
32
  10
1531847.40
  20
2797961.15
  30
146
  0
VERTEX
  8
INTERMEDIATE
  70
32
  10
1531846.52
  20
2797959.80
  30
146
  0
VERTEX
  8
INTERMEDIATE
  70
32
  10
1531845.73
  20
2797958.37
  30
146
  0
VERTEX
  8
INTERMEDIATE
  70
32
  10
1531845.02
  20
2797956.85
  30
146
  0
VERTEX
  8
INTERMEDIATE
  70
32
  10
1531844.59
  20
2797955.69
  30
146
  0
VERTEX
  8
INTERMEDIATE
  70
32
  10
1531844.26
  20
2797954.50
  30
146
  0
VERTEX
  8
INTERMEDIATE
  70
32
  10
1531843.98
  20
2797952.79
  30
146
  0
VERTEX
  8
INTERMEDIATE
  70
32
  10
1531843.88
  20
2797951.03
  30
146
  0
VERTEX
  8
INTERMEDIATE
  70
32
  10
1531843.88
  20
2797949.23
  30
146
  0
VERTEX
  8
INTERMEDIATE
  70
32
  10
1531843.97
  20
2797947.41
  30
146
  0
VERTEX
  8
INTERMEDIATE
  70
32
  10
1531844.25
  20
2797943.76
  30
146
  0
VERTEX
  8
INTERMEDIATE
  70
32
  10
1531844.45
  20
2797941.94
  30
146
  0
VERTEX
  8
INTERMEDIATE
  70
32
  10
1531844.73
  20
2797940.14
  30
146
  0
VERTEX
  8
INTERMEDIATE
  70
32
  10
1531845.09
  20
2797938.42
  30
146
  0
VERTEX
  8
INTERMEDIATE
  70
32
  10
1531845.54
  20
2797936.71
  30
146
  0
VERTEX
  8
INTERMEDIATE
  70
32
  10
1531846.04
  20
2797935.01
  30
146
  0
VERTEX
  8
INTERMEDIATE
  70
32
  10
1531846.53
  20
2797933.53
  30
146
  0
VERTEX
  8
INTERMEDIATE
  70
32
  10
1531847.61
  20
2797930.58
  30
146
  0
VERTEX
  8
INTERMEDIATE
  70
32
  10
1531848.84
  20
2797927.51
  30
146
  0
VERTEX
  8
INTERMEDIATE
  70
32
  10
1531850.26
  20
2797924.35
  30
146
  0
VERTEX
  8
INTERMEDIATE
  70
32
  10
1531851.03
  20
2797922.80
  30
146
  0
VERTEX
  8
INTERMEDIATE
  70
32
  10
1531851.85
  20
2797921.28
  30
146
  0
VERTEX
  8
INTERMEDIATE
  70
32
  10
1531852.65
  20
2797919.94
  30
146
  0
VERTEX
  8
INTERMEDIATE
  70
32
  10
1531854.36
  20
2797917.34
  30
146
  0
VERTEX
  8
INTERMEDIATE
  70
32
  10
1531855.35
  20
2797915.94
  30
146
  0
VERTEX
  8
INTERMEDIATE
  70
32
  10
1531856.38
  20
2797914.57
  30
146
  0
VERTEX
  8
INTERMEDIATE
  70
32
  10
1531857.44
  20
2797913.23
  30
146
  0
VERTEX
  8
INTERMEDIATE
  70
32
  10
1531859.28
  20
2797911.11
  30
146
  0
VERTEX
  8
INTERMEDIATE
  70
32
  10
1531861.40
  20
2797908.79
  30
146
  0
VERTEX
  8
INTERMEDIATE
  70
32
  10
1531862.56
  20
2797907.47
  30
146
  0
VERTEX
  8
INTERMEDIATE
  70
32
  10
1531863.68
  20
2797906.10
  30
146
  0
VERTEX
  8
INTERMEDIATE
  70
32
  10
1531864.75
  20
2797904.68
  30
146
  0
VERTEX
  8
INTERMEDIATE
  70
32
  10
1531865.77
  20
2797903.23
  30
146
  0
VERTEX
  8
INTERMEDIATE
  70
32
  10
1531866.76
  20
2797901.75
  30
146
  0
VERTEX
  8
INTERMEDIATE
  70
32
  10
1531867.72
  20
2797900.24
  30
146
  0
VERTEX
  8
INTERMEDIATE
  70
32
  10
1531869.25
  20
2797897.66
  30
146
  0
VERTEX
  8
INTERMEDIATE
  70
32
  10
1531869.84
  20
2797896.59
  30
146
  0
VERTEX
  8
INTERMEDIATE
  70
32
  10
1531870.53
  20
2797895.23
  30
146
  0
VERTEX
  8
INTERMEDIATE
  70
32
  10
1531871.79
  20
2797892.47
  30
146
  0
VERTEX
  8
INTERMEDIATE
  70
32
  10
1531873.93
  20
2797887.58
  30
146
  0
VERTEX
  8
INTERMEDIATE
  70
32
  10
1531874.62
  20
2797886.14
  30
146
  0
VERTEX
  8
INTERMEDIATE
  70
32
  10
1531876.09
  20
2797883.32
  30
146
  0
VERTEX
  8
INTERMEDIATE
  70
32
  10
1531877.65
  20
2797880.59
  30
146
  0
VERTEX
  8
INTERMEDIATE
  70
32
  10
1531879.26
  20
2797877.95
  30
146
  0
VERTEX
  8
INTERMEDIATE
  70
32
  10
1531883.18
  20
2797871.83
  30
146
  0
VERTEX
  8
INTERMEDIATE
  70
32
  10
1531885.27
  20
2797868.63
  30
146
  0
VERTEX
  8
INTERMEDIATE
  70
32
  10
1531887.01
  20
2797866.08
  30
146
  0
VERTEX
  8
INTERMEDIATE
  70
32
  10
1531888.00
  20
2797864.70
  30
146
  0
SEQEND
  8
INTERMEDIATE
  0
POLYLINE
  8
INDEX
  70
8
  66
1
 62
0
 39
0
  0
VERTEX
  8
INDEX
  70
32
  10
1531888.00
  20
2798576.63
  30
110
  0
VERTEX
  8
INDEX
  70
32
  10
1531887.49
  20
2798577.25
  30
110
  0
VERTEX
  8
INDEX
  70
32
  10
1531886.25
  20
2798578.59
  30
110
  0
VERTEX
  8
INDEX
  70
32
  10
1531884.87
  20
2798579.90
  30
110
  0
VERTEX
  8
INDEX
  70
32
  10
1531883.41
  20
2798581.09
  30
110
  0
VERTEX
  8
INDEX
  70
32
  10
1531881.88
  20
2798582.18
  30
110
  0
VERTEX
  8
INDEX
  70
32
  10
1531880.29
  20
2798583.13
  30
110
  0
VERTEX
  8
INDEX
  70
32
  10
1531878.64
  20
2798583.92
  30
110
  0
VERTEX
  8
INDEX
  70
32
  10
1531877.03
  20
2798584.47
  30
110
  0
VERTEX
  8
INDEX
  70
32
  10
1531875.38
  20
2798584.82
  30
110
  0
VERTEX
  8
INDEX
  70
32
  10
1531873.88
  20
2798584.92
  30
110
  0
VERTEX
  8
INDEX
  70
32
  10
1531872.39
  20
2798584.88
  30
110
  0
VERTEX
  8
INDEX
  70
32
  10
1531870.91
  20
2798584.73
  30
110
  0
VERTEX
  8
INDEX
  70
32
  10
1531869.39
  20
2798584.48
  30
110
  0
VERTEX
  8
INDEX
  70
32
  10
1531867.92
  20
2798584.15
  30
110
  0
VERTEX
  8
INDEX
  70
32
  10
1531866.54
  20
2798583.73
  30
110
  0
VERTEX
  8
INDEX
  70
32
  10
1531865.28
  20
2798583.20
  30
110
  0
VERTEX
  8
INDEX
  70
32
  10
1531864.20
  20
2798582.54
  30
110
  0
VERTEX
  8
INDEX
  70
32
  10
1531863.35
  20
2798581.70
  30
110
  0
VERTEX
  8
INDEX
  70
32
  10
1531862.75
  20
2798580.60
  30
110
  0
VERTEX
  8
INDEX
  70
32
  10
1531862.34
  20
2798579.32
  30
110
  0
VERTEX
  8
INDEX
  70
32
  10
1531861.09
  20
2798573.46
  30
110
  0
VERTEX
  8
INDEX
  70
32
  10
1531860.50
  20
2798570.25
  30
110
  0
VERTEX
  8
INDEX
  70
32
  10
1531860.25
  20
2798568.59
  30
110
  0
VERTEX
  8
INDEX
  70
32
  10
1531860.05
  20
2798566.92
  30
110
  0
VERTEX
  8
INDEX
  70
32
  10
1531859.88
  20
2798565.01
  30
110
  0
VERTEX
  8
INDEX
  70
32
  10
1531859.78
  20
2798563.10
  30
110
  0
VERTEX
  8
INDEX
  70
32
  10
1531859.75
  20
2798561.19
  30
110
  0
VERTEX
  8
INDEX
  70
32
  10
1531859.78
  20
2798559.29
  30
110
  0
VERTEX
  8
INDEX
  70
32
  10
1531859.89
  20
2798557.42
  30
110
  0
VERTEX
  8
INDEX
  70
32
  10
1531860.10
  20
2798555.58
  30
110
  0
VERTEX
  8
INDEX
  70
32
  10
1531860.43
  20
2798553.78
  30
110
  0
VERTEX
  8
INDEX
  70
32
  10
1531860.88
  20
2798552.19
  30
110
  0
VERTEX
  8
INDEX
  70
32
  10
1531861.46
  20
2798550.66
  30
110
  0
VERTEX
  8
INDEX
  70
32
  10
1531862.19
  20
2798549.22
  30
110
  0
VERTEX
  8
INDEX
  70
32
  10
1531863.07
  20
2798547.88
  30
110
  0
VERTEX
  8
INDEX
  70
32
  10
1531864.25
  20
2798546.53
  30
110
  0
VERTEX
  8
INDEX
  70
32
  10
1531865.60
  20
2798545.29
  30
110
  0
VERTEX
  8
INDEX
  70
32
  10
1531867.06
  20
2798544.12
  30
110
  0
VERTEX
  8
INDEX
  70
32
  10
1531868.56
  20
2798543.01
  30
110
  0
VERTEX
  8
INDEX
  70
32
  10
1531873.20
  20
2798539.69
  30
110
  0
VERTEX
  8
INDEX
  70
32
  10
1531874.70
  20
2798538.54
  30
110
  0
VERTEX
  8
INDEX
  70
32
  10
1531876.15
  20
2798537.33
  30
110
  0
VERTEX
  8
INDEX
  70
32
  10
1531877.49
  20
2798536.08
  30
110
  0
VERTEX
  8
INDEX
  70
32
  10
1531878.77
  20
2798534.79
  30
110
  0
VERTEX
  8
INDEX
  70
32
  10
1531880.89
  20
2798532.50
  30
110
  0
VERTEX
  8
INDEX
  70
32
  10
1531881.74
  20
2798531.51
  30
110
  0
VERTEX
  8
INDEX
  70
32
  10
1531882.53
  20
2798530.49
  30
110
  0
VERTEX
  8
INDEX
  70
32
  10
1531883.51
  20
2798529.03
  30
110
  0
VERTEX
  8
INDEX
  70
32
  10
1531884.38
  20
2798527.50
  30
110
  0
VERTEX
  8
INDEX
  70
32
  10
1531885.15
  20
2798525.93
  30
110
  0
VERTEX
  8
INDEX
  70
32
  10
1531885.85
  20
2798524.35
  30
110
  0
VERTEX
  8
INDEX
  70
32
  10
1531886.46
  20
2798522.76
  30
110
  0
VERTEX
  8
INDEX
  70
32
  10
1531887.58
  20
2798519.44
  30
110
  0
VERTEX
  8
INDEX
  70
32
  10
1531888.00
  20
2798518.41
  30
110
  0
SEQEND
  8
INDEX
  0
POLYLINE
  8
INTERMEDIATE
  70
8
  66
1
 62
0
 39
0
  0
VERTEX
  8
INTERMEDIATE
  70
32
  10
1531861.92
  20
2798619.72
  30
112
  0
VERTEX
  8
INTERMEDIATE
  70
32
  10
1531862.21
  20
2798619.39
  30
112
  0
VERTEX
  8
INTERMEDIATE
  70
32
  10
1531864.07
  20
2798616.86
  30
112
  0
VERTEX
  8
INTERMEDIATE
  70
32
  10
1531865.01
  20
2798615.68
  30
112
  0
VERTEX
  8
INTERMEDIATE
  70
32
  10
1531866.12
  20
2798614.41
  30
112
  0
VERTEX
  8
INTERMEDIATE
  70
32
  10
1531868.59
  20
2798611.72
  30
112
  0
VERTEX
  8
INTERMEDIATE
  70
32
  10
1531869.96
  20
2798610.14
  30
112
  0
VERTEX
  8
INTERMEDIATE
  70
32
  10
1531871.25
  20
2798608.58
  30
112
  0
VERTEX
  8
INTERMEDIATE
  70
32
  10
1531872.39
  20
2798607.09
  30
112
  0
VERTEX
  8
INTERMEDIATE
  70
32
  10
1531873.34
  20
2798605.76
  30
112
  0
VERTEX
  8
INTERMEDIATE
  70
32
  10
1531874.64
  20
2798603.80
  30
112
  0
VERTEX
  8
INTERMEDIATE
  70
32
  10
1531875.18
  20
2798603.04
  30
112
  0
VERTEX
  8
INTERMEDIATE
  70
32
  10
1531876.18
  20
2798601.91
  30
112
  0
VERTEX
  8
INTERMEDIATE
  70
32
  10
1531877.37
  20
2798600.91
  30
112
  0
VERTEX
  8
INTERMEDIATE
  70
32
  10
1531878.70
  20
2798600.07
  30
112
  0
VERTEX
  8
INTERMEDIATE
  70
32
  10
1531879.95
  20
2798599.52
  30
112
  0
VERTEX
  8
INTERMEDIATE
  70
32
  10
1531881.27
  20
2798599.11
  30
112
  0
VERTEX
  8
INTERMEDIATE
  70
32
  10
1531882.63
  20
2798598.87
  30
112
  0
VERTEX
  8
INTERMEDIATE
  70
32
  10
1531884.02
  20
2798598.80
  30
112
  0
VERTEX
  8
INTERMEDIATE
  70
32
  10
1531885.19
  20
2798598.89
  30
112
  0
VERTEX
  8
INTERMEDIATE
  70
32
  10
1531886.34
  20
2798599.08
  30
112
  0
VERTEX
  8
INTERMEDIATE
  70
32
  10
1531887.48
  20
2798599.37
  30
112
  0
VERTEX
  8
INTERMEDIATE
  70
32
  10
1531888.00
  20
2798599.54
  30
112
  0
SEQEND
  8
INTERMEDIATE
  0
POLYLINE
  8
INTERMEDIATE
  70
8
  66
1
 62
0
 39
0
  0
VERTEX
  8
INTERMEDIATE
  70
32
  10
1531888.00
  20
2798473.84
  30
112
  0
VERTEX
  8
INTERMEDIATE
  70
32
  10
1531887.76
  20
2798473.99
  30
112
  0
VERTEX
  8
INTERMEDIATE
  70
32
  10
1531886.41
  20
2798474.70
  30
112
  0
VERTEX
  8
INTERMEDIATE
  70
32
  10
1531885.00
  20
2798475.28
  30
112
  0
VERTEX
  8
INTERMEDIATE
  70
32
  10
1531883.54
  20
2798475.72
  30
112
  0
VERTEX
  8
INTERMEDIATE
  70
32
  10
1531882.05
  20
2798476.03
  30
112
  0
VERTEX
  8
INTERMEDIATE
  70
32
  10
1531880.53
  20
2798476.23
  30
112
  0
VERTEX
  8
INTERMEDIATE
  70
32
  10
1531877.58
  20
2798476.55
  30
112
  0
VERTEX
  8
INTERMEDIATE
  70
32
  10
1531876.17
  20
2798476.74
  30
112
  0
VERTEX
  8
INTERMEDIATE
  70
32
  10
1531874.78
  20
2798476.99
  30
112
  0
VERTEX
  8
INTERMEDIATE
  70
32
  10
1531873.43
  20
2798477.34
  30
112
  0
VERTEX
  8
INTERMEDIATE
  70
32
  10
1531871.79
  20
2798477.97
  30
112
  0
VERTEX
  8
INTERMEDIATE
  70
32
  10
1531870.02
  20
2798478.91
  30
112
  0
VERTEX
  8
INTERMEDIATE
  70
32
  10
1531868.13
  20
2798480.13
  30
112
  0
VERTEX
  8
INTERMEDIATE
  70
32
  10
1531866.19
  20
2798481.52
  30
112
  0
VERTEX
  8
INTERMEDIATE
  70
32
  10
1531864.27
  20
2798483.00
  30
112
  0
VERTEX
  8
INTERMEDIATE
  70
32
  10
1531859.43
  20
2798486.96
  30
112
  0
VERTEX
  8
INTERMEDIATE
  70
32
  10
1531858.32
  20
2798487.84
  30
112
  0
VERTEX
  8
INTERMEDIATE
  70
32
  10
1531856.87
  20
2798488.89
  30
112
  0
VERTEX
  8
INTERMEDIATE
  70
32
  10
1531856.65
  20
2798489.00
  30
112
  0
SEQEND
  8
INTERMEDIATE
  0
POLYLINE
  8
INTERMEDIATE
  70
8
  66
1
 62
0
 39
0
  0
VERTEX
  8
INTERMEDIATE
  70
32
  10
1531857.00
  20
2798497.72
  30
112
  0
VERTEX
  8
INTERMEDIATE
  70
32
  10
1531858.26
  20
2798499.81
  30
112
  0
VERTEX
  8
INTERMEDIATE
  70
32
  10
1531859.14
  20
2798501.06
  30
112
  0
VERTEX
  8
INTERMEDIATE
  70
32
  10
1531859.41
  20
2798501.38
  30
112
  0
VERTEX
  8
INTERMEDIATE
  70
32
  10
1531860.01
  20
2798501.98
  30
112
  0
VERTEX
  8
INTERMEDIATE
  70
32
  10
1531862.28
  20
2798503.93
  30
112
  0
VERTEX
  8
INTERMEDIATE
  70
32
  10
1531863.14
  20
2798504.77
  30
112
  0
VERTEX
  8
INTERMEDIATE
  70
32
  10
1531863.36
  20
2798505.06
  30
112
  0
VERTEX
  8
INTERMEDIATE
  70
32
  10
1531863.54
  20
2798505.36
  30
112
  0
VERTEX
  8
INTERMEDIATE
  70
32
  10
1531863.64
  20
2798505.67
  30
112
  0
VERTEX
  8
INTERMEDIATE
  70
32
  10
1531863.65
  20
2798506.00
  30
112
  0
VERTEX
  8
INTERMEDIATE
  70
32
  10
1531863.59
  20
2798506.35
  30
112
  0
VERTEX
  8
INTERMEDIATE
  70
32
  10
1531863.48
  20
2798506.71
  30
112
  0
VERTEX
  8
INTERMEDIATE
  70
32
  10
1531862.96
  20
2798507.81
  30
112
  0
VERTEX
  8
INTERMEDIATE
  70
32
  10
1531862.09
  20
2798509.31
  30
112
  0
VERTEX
  8
INTERMEDIATE
  70
32
  10
1531861.13
  20
2798510.77
  30
112
  0
VERTEX
  8
INTERMEDIATE
  70
32
  10
1531860.59
  20
2798511.43
  30
112
  0
VERTEX
  8
INTERMEDIATE
  70
32
  10
1531859.90
  20
2798512.15
  30
112
  0
VERTEX
  8
INTERMEDIATE
  70
32
  10
1531857.66
  20
2798514.18
  30
112
  0
SEQEND
  8
INTERMEDIATE
  0
POLYLINE
  8
INDEX
  70
8
  66
1
 62
0
 39
0
  0
VERTEX
  8
INDEX
  70
32
  10
1531888.00
  20
2798232.27
  30
140
  0
VERTEX
  8
INDEX
  70
32
  10
1531887.04
  20
2798232.79
  30
140
  0
VERTEX
  8
INDEX
  70
32
  10
1531885.63
  20
2798233.67
  30
140
  0
VERTEX
  8
INDEX
  70
32
  10
1531884.30
  20
2798234.64
  30
140
  0
VERTEX
  8
INDEX
  70
32
  10
1531883.37
  20
2798235.43
  30
140
  0
VERTEX
  8
INDEX
  70
32
  10
1531880.10
  20
2798238.45
  30
140
  0
VERTEX
  8
INDEX
  70
32
  10
1531878.87
  20
2798239.53
  30
140
  0
VERTEX
  8
INDEX
  70
32
  10
1531877.51
  20
2798240.61
  30
140
  0
VERTEX
  8
INDEX
  70
32
  10
1531876.11
  20
2798241.63
  30
140
  0
VERTEX
  8
INDEX
  70
32
  10
1531874.65
  20
2798242.55
  30
140
  0
VERTEX
  8
INDEX
  70
32
  10
1531873.15
  20
2798243.35
  30
140
  0
VERTEX
  8
INDEX
  70
32
  10
1531871.71
  20
2798243.96
  30
140
  0
VERTEX
  8
INDEX
  70
32
  10
1531870.24
  20
2798244.44
  30
140
  0
VERTEX
  8
INDEX
  70
32
  10
1531868.74
  20
2798244.77
  30
140
  0
VERTEX
  8
INDEX
  70
32
  10
1531867.48
  20
2798244.94
  30
140
  0
VERTEX
  8
INDEX
  70
32
  10
1531866.23
  20
2798244.99
  30
140
  0
VERTEX
  8
INDEX
  70
32
  10
1531864.96
  20
2798244.91
  30
140
  0
VERTEX
  8
INDEX
  70
32
  10
1531863.93
  20
2798244.75
  30
140
  0
VERTEX
  8
INDEX
  70
32
  10
1531862.83
  20
2798244.52
  30
140
  0
VERTEX
  8
INDEX
  70
32
  10
1531856.44
  20
2798242.96
  30
140
  0
VERTEX
  8
INDEX
  70
32
  10
1531854.52
  20
2798242.55
  30
140
  0
VERTEX
  8
INDEX
  70
32
  10
1531852.68
  20
2798242.19
  30
140
  0
VERTEX
  8
INDEX
  70
32
  10
1531850.99
  20
2798241.90
  30
140
  0
VERTEX
  8
INDEX
  70
32
  10
1531848.21
  20
2798241.50
  30
140
  0
VERTEX
  8
INDEX
  70
32
  10
1531847.28
  20
2798241.42
  30
140
  0
VERTEX
  8
INDEX
  70
32
  10
1531846.76
  20
2798241.42
  30
140
  0
VERTEX
  8
INDEX
  70
32
  10
1531846.67
  20
2798241.48
  30
140
  0
SEQEND
  8
INDEX
  0
POLYLINE
  8
INDEX
  70
8
  66
1
 62
0
 39
0
  0
VERTEX
  8
INDEX
  70
32
  10
1531840.45
  20
2798087.38
  30
140
  0
VERTEX
  8
INDEX
  70
32
  10
1531840.69
  20
2798087.44
  30
140
  0
VERTEX
  8
INDEX
  70
32
  10
1531842.47
  20
2798087.65
  30
140
  0
VERTEX
  8
INDEX
  70
32
  10
1531845.54
  20
2798087.88
  30
140
  0
VERTEX
  8
INDEX
  70
32
  10
1531847.39
  20
2798087.98
  30
140
  0
VERTEX
  8
INDEX
  70
32
  10
1531852.46
  20
2798088.16
  30
140
  0
VERTEX
  8
INDEX
  70
32
  10
1531854.61
  20
2798088.28
  30
140
  0
VERTEX
  8
INDEX
  70
32
  10
1531856.65
  20
2798088.47
  30
140
  0
VERTEX
  8
INDEX
  70
32
  10
1531858.48
  20
2798088.71
  30
140
  0
VERTEX
  8
INDEX
  70
32
  10
1531860.06
  20
2798089.02
  30
140
  0
VERTEX
  8
INDEX
  70
32
  10
1531861.50
  20
2798089.40
  30
140
  0
VERTEX
  8
INDEX
  70
32
  10
1531863.68
  20
2798090.12
  30
140
  0
VERTEX
  8
INDEX
  70
32
  10
1531864.96
  20
2798090.49
  30
140
  0
VERTEX
  8
INDEX
  70
32
  10
1531866.29
  20
2798090.81
  30
140
  0
VERTEX
  8
INDEX
  70
32
  10
1531867.65
  20
2798091.09
  30
140
  0
VERTEX
  8
INDEX
  70
32
  10
1531872.65
  20
2798091.92
  30
140
  0
VERTEX
  8
INDEX
  70
32
  10
1531874.31
  20
2798092.24
  30
140
  0
VERTEX
  8
INDEX
  70
32
  10
1531875.59
  20
2798092.55
  30
140
  0
VERTEX
  8
INDEX
  70
32
  10
1531876.85
  20
2798092.93
  30
140
  0
VERTEX
  8
INDEX
  70
32
  10
1531878.13
  20
2798093.45
  30
140
  0
VERTEX
  8
INDEX
  70
32
  10
1531879.38
  20
2798094.06
  30
140
  0
VERTEX
  8
INDEX
  70
32
  10
1531880.58
  20
2798094.75
  30
140
  0
VERTEX
  8
INDEX
  70
32
  10
1531884.24
  20
2798097.10
  30
140
  0
VERTEX
  8
INDEX
  70
32
  10
1531886.39
  20
2798098.36
  30
140
  0
VERTEX
  8
INDEX
  70
32
  10
1531887.71
  20
2798099.16
  30
140
  0
VERTEX
  8
INDEX
  70
32
  10
1531888.00
  20
2798099.36
  30
140
  0
SEQEND
  8
INDEX
  0
POLYLINE
  8
INTERMEDIATE
  70
8
  66
1
 62
0
 39
0
  0
VERTEX
  8
INTERMEDIATE
  70
32
  10
1531846.45
  20
2798236.14
  30
142
  0
VERTEX
  8
INTERMEDIATE
  70
32
  10
1531849.68
  20
2798235.49
  30
142
  0
VERTEX
  8
INTERMEDIATE
  70
32
  10
1531852.04
  20
2798235.10
  30
142
  0
VERTEX
  8
INTERMEDIATE
  70
32
  10
1531853.24
  20
2798234.96
  30
142
  0
VERTEX
  8
INTERMEDIATE
  70
32
  10
1531854.34
  20
2798234.87
  30
142
  0
VERTEX
  8
INTERMEDIATE
  70
32
  10
1531857.95
  20
2798234.74
  30
142
  0
VERTEX
  8
INTERMEDIATE
  70
32
  10
1531858.78
  20
2798234.65
  30
142
  0
VERTEX
  8
INTERMEDIATE
  70
32
  10
1531859.59
  20
2798234.51
  30
142
  0
VERTEX
  8
INTERMEDIATE
  70
32
  10
1531860.37
  20
2798234.29
  30
142
  0
VERTEX
  8
INTERMEDIATE
  70
32
  10
1531861.16
  20
2798233.95
  30
142
  0
VERTEX
  8
INTERMEDIATE
  70
32
  10
1531861.92
  20
2798233.52
  30
142
  0
VERTEX
  8
INTERMEDIATE
  70
32
  10
1531863.39
  20
2798232.51
  30
142
  0
VERTEX
  8
INTERMEDIATE
  70
32
  10
1531868.58
  20
2798228.52
  30
142
  0
VERTEX
  8
INTERMEDIATE
  70
32
  10
1531870.01
  20
2798227.32
  30
142
  0
VERTEX
  8
INTERMEDIATE
  70
32
  10
1531870.66
  20
2798226.68
  30
142
  0
VERTEX
  8
INTERMEDIATE
  70
32
  10
1531871.25
  20
2798226.02
  30
142
  0
VERTEX
  8
INTERMEDIATE
  70
32
  10
1531871.75
  20
2798225.30
  30
142
  0
VERTEX
  8
INTERMEDIATE
  70
32
  10
1531872.11
  20
2798224.58
  30
142
  0
VERTEX
  8
INTERMEDIATE
  70
32
  10
1531872.38
  20
2798223.81
  30
142
  0
VERTEX
  8
INTERMEDIATE
  70
32
  10
1531872.60
  20
2798223.01
  30
142
  0
VERTEX
  8
INTERMEDIATE
  70
32
  10
1531872.91
  20
2798221.34
  30
142
  0
VERTEX
  8
INTERMEDIATE
  70
32
  10
1531873.13
  20
2798219.61
  30
142
  0
VERTEX
  8
INTERMEDIATE
  70
32
  10
1531873.40
  20
2798216.99
  30
142
  0
VERTEX
  8
INTERMEDIATE
  70
32
  10
1531873.64
  20
2798215.01
  30
142
  0
VERTEX
  8
INTERMEDIATE
  70
32
  10
1531874.18
  20
2798211.76
  30
142
  0
VERTEX
  8
INTERMEDIATE
  70
32
  10
1531874.40
  20
2798210.80
  30
142
  0
VERTEX
  8
INTERMEDIATE
  70
32
  10
1531874.65
  20
2798209.93
  30
142
  0
VERTEX
  8
INTERMEDIATE
  70
32
  10
1531874.85
  20
2798209.38
  30
142
  0
VERTEX
  8
INTERMEDIATE
  70
32
  10
1531875.34
  20
2798208.36
  30
142
  0
VERTEX
  8
INTERMEDIATE
  70
32
  10
1531875.56
  20
2798208.02
  30
142
  0
VERTEX
  8
INTERMEDIATE
  70
32
  10
1531875.69
  20
2798207.91
  30
142
  0
SEQEND
  8
INTERMEDIATE
  0
POLYLINE
  8
INTERMEDIATE
  70
8
  66
1
 62
0
 39
0
  0
VERTEX
  8
INTERMEDIATE
  70
32
  10
1531875.69
  20
2798207.91
  30
142
  0
VERTEX
  8
INTERMEDIATE
  70
32
  10
1531877.66
  20
2798205.02
  30
142
  0
VERTEX
  8
INTERMEDIATE
  70
32
  10
1531881.52
  20
2798199.48
  30
142
  0
VERTEX
  8
INTERMEDIATE
  70
32
  10
1531886.75
  20
2798192.12
  30
142
  0
VERTEX
  8
INTERMEDIATE
  70
32
  10
1531888.00
  20
2798190.25
  30
142
  0
SEQEND
  8
INTERMEDIATE
  0
POLYLINE
  8
INTERMEDIATE
  70
8
  66
1
 62
0
 39
0
  0
VERTEX
  8
INTERMEDIATE
  70
32
  10
1531888.00
  20
2798120.80
  30
142
  0
VERTEX
  8
INTERMEDIATE
  70
32
  10
1531887.41
  20
2798120.46
  30
142
  0
VERTEX
  8
INTERMEDIATE
  70
32
  10
1531886.09
  20
2798119.83
  30
142
  0
VERTEX
  8
INTERMEDIATE
  70
32
  10
1531884.72
  20
2798119.26
  30
142
  0
VERTEX
  8
INTERMEDIATE
  70
32
  10
1531883.28
  20
2798118.73
  30
142
  0
VERTEX
  8
INTERMEDIATE
  70
32
  10
1531878.96
  20
2798117.24
  30
142
  0
VERTEX
  8
INTERMEDIATE
  70
32
  10
1531877.32
  20
2798116.56
  30
142
  0
VERTEX
  8
INTERMEDIATE
  70
32
  10
1531875.91
  20
2798115.79
  30
142
  0
VERTEX
  8
INTERMEDIATE
  70
32
  10
1531874.56
  20
2798114.89
  30
142
  0
VERTEX
  8
INTERMEDIATE
  70
32
  10
1531870.39
  20
2798111.81
  30
142
  0
VERTEX
  8
INTERMEDIATE
  70
32
  10
1531868.96
  20
2798110.78
  30
142
  0
VERTEX
  8
INTERMEDIATE
  70
32
  10
1531867.51
  20
2798109.80
  30
142
  0
VERTEX
  8
INTERMEDIATE
  70
32
  10
1531866.03
  20
2798108.91
  30
142
  0
VERTEX
  8
INTERMEDIATE
  70
32
  10
1531864.52
  20
2798108.15
  30
142
  0
VERTEX
  8
INTERMEDIATE
  70
32
  10
1531863.42
  20
2798107.72
  30
142
  0
VERTEX
  8
INTERMEDIATE
  70
32
  10
1531862.29
  20
2798107.40
  30
142
  0
VERTEX
  8
INTERMEDIATE
  70
32
  10
1531861.15
  20
2798107.22
  30
142
  0
VERTEX
  8
INTERMEDIATE
  70
32
  10
1531859.80
  20
2798107.18
  30
142
  0
VERTEX
  8
INTERMEDIATE
  70
32
  10
1531858.27
  20
2798107.29
  30
142
  0
VERTEX
  8
INTERMEDIATE
  70
32
  10
1531854.69
  20
2798107.72
  30
142
  0
VERTEX
  8
INTERMEDIATE
  70
32
  10
1531852.77
  20
2798107.90
  30
142
  0
VERTEX
  8
INTERMEDIATE
  70
32
  10
1531851.34
  20
2798108.00
  30
142
  0
VERTEX
  8
INTERMEDIATE
  70
32
  10
1531848.94
  20
2798108.09
  30
142
  0
VERTEX
  8
INTERMEDIATE
  70
32
  10
1531846.67
  20
2798108.10
  30
142
  0
VERTEX
  8
INTERMEDIATE
  70
32
  10
1531844.66
  20
2798108.04
  30
142
  0
VERTEX
  8
INTERMEDIATE
  70
32
  10
1531843.27
  20
2798107.95
  30
142
  0
VERTEX
  8
INTERMEDIATE
  70
32
  10
1531842.19
  20
2798107.84
  30
142
  0
VERTEX
  8
INTERMEDIATE
  70
32
  10
1531841.51
  20
2798107.72
  30
142
  0
VERTEX
  8
INTERMEDIATE
  70
32
  10
1531841.27
  20
2798107.62
  30
142
  0
SEQEND
  8
INTERMEDIATE
  0
POLYLINE
  8
INTERMEDIATE
  70
8
  66
1
 62
0
 39
0
  0
VERTEX
  8
INTERMEDIATE
  70
32
  10
1531846.15
  20
2798228.57
  30
144
  0
VERTEX
  8
INTERMEDIATE
  70
32
  10
1531848.06
  20
2798228.00
  30
144
  0
VERTEX
  8
INTERMEDIATE
  70
32
  10
1531849.41
  20
2798227.47
  30
144
  0
VERTEX
  8
INTERMEDIATE
  70
32
  10
1531850.09
  20
2798227.15
  30
144
  0
VERTEX
  8
INTERMEDIATE
  70
32
  10
1531850.76
  20
2798226.77
  30
144
  0
VERTEX
  8
INTERMEDIATE
  70
32
  10
1531851.37
  20
2798226.37
  30
144
  0
VERTEX
  8
INTERMEDIATE
  70
32
  10
1531851.89
  20
2798225.98
  30
144
  0
VERTEX
  8
INTERMEDIATE
  70
32
  10
1531853.25
  20
2798224.79
  30
144
  0
VERTEX
  8
INTERMEDIATE
  70
32
  10
1531858.65
  20
2798219.85
  30
144
  0
VERTEX
  8
INTERMEDIATE
  70
32
  10
1531859.97
  20
2798218.59
  30
144
  0
VERTEX
  8
INTERMEDIATE
  70
32
  10
1531860.79
  20
2798217.73
  30
144
  0
VERTEX
  8
INTERMEDIATE
  70
32
  10
1531861.17
  20
2798217.28
  30
144
  0
VERTEX
  8
INTERMEDIATE
  70
32
  10
1531861.52
  20
2798216.81
  30
144
  0
VERTEX
  8
INTERMEDIATE
  70
32
  10
1531861.83
  20
2798216.32
  30
144
  0
VERTEX
  8
INTERMEDIATE
  70
32
  10
1531862.26
  20
2798215.39
  30
144
  0
VERTEX
  8
INTERMEDIATE
  70
32
  10
1531862.80
  20
2798213.93
  30
144
  0
VERTEX
  8
INTERMEDIATE
  70
32
  10
1531863.01
  20
2798213.46
  30
144
  0
VERTEX
  8
INTERMEDIATE
  70
32
  10
1531863.56
  20
2798212.51
  30
144
  0
VERTEX
  8
INTERMEDIATE
  70
32
  10
1531864.21
  20
2798211.61
  30
144
  0
VERTEX
  8
INTERMEDIATE
  70
32
  10
1531866.30
  20
2798208.93
  30
144
  0
VERTEX
  8
INTERMEDIATE
  70
32
  10
1531868.06
  20
2798206.59
  30
144
  0
SEQEND
  8
INTERMEDIATE
  0
POLYLINE
  8
INTERMEDIATE
  70
8
  66
1
 62
0
 39
0
  0
VERTEX
  8
INTERMEDIATE
  70
32
  10
1531868.06
  20
2798206.59
  30
144
  0
VERTEX
  8
INTERMEDIATE
  70
32
  10
1531872.36
  20
2798200.71
  30
144
  0
VERTEX
  8
INTERMEDIATE
  70
32
  10
1531874.91
  20
2798197.13
  30
144
  0
VERTEX
  8
INTERMEDIATE
  70
32
  10
1531877.52
  20
2798193.29
  30
144
  0
VERTEX
  8
INTERMEDIATE
  70
32
  10
1531878.75
  20
2798191.36
  30
144
  0
VERTEX
  8
INTERMEDIATE
  70
32
  10
1531881.37
  20
2798187.00
  30
144
  0
VERTEX
  8
INTERMEDIATE
  70
32
  10
1531882.27
  20
2798185.31
  30
144
  0
VERTEX
  8
INTERMEDIATE
  70
32
  10
1531883.07
  20
2798183.60
  30
144
  0
VERTEX
  8
INTERMEDIATE
  70
32
  10
1531883.74
  20
2798181.87
  30
144
  0
VERTEX
  8
INTERMEDIATE
  70
32
  10
1531884.25
  20
2798180.12
  30
144
  0
VERTEX
  8
INTERMEDIATE
  70
32
  10
1531884.54
  20
2798178.35
  30
144
  0
VERTEX
  8
INTERMEDIATE
  70
32
  10
1531884.59
  20
2798177.14
  30
144
  0
VERTEX
  8
INTERMEDIATE
  70
32
  10
1531884.54
  20
2798175.91
  30
144
  0
VERTEX
  8
INTERMEDIATE
  70
32
  10
1531884.39
  20
2798174.69
  30
144
  0
VERTEX
  8
INTERMEDIATE
  70
32
  10
1531884.16
  20
2798173.40
  30
144
  0
VERTEX
  8
INTERMEDIATE
  70
32
  10
1531883.62
  20
2798170.79
  30
144
  0
VERTEX
  8
INTERMEDIATE
  70
32
  10
1531883.09
  20
2798167.54
  30
144
  0
VERTEX
  8
INTERMEDIATE
  70
32
  10
1531882.00
  20
2798158.88
  30
144
  0
VERTEX
  8
INTERMEDIATE
  70
32
  10
1531881.75
  20
2798155.81
  30
144
  0
VERTEX
  8
INTERMEDIATE
  70
32
  10
1531881.67
  20
2798154.28
  30
144
  0
VERTEX
  8
INTERMEDIATE
  70
32
  10
1531881.57
  20
2798150.86
  30
144
  0
VERTEX
  8
INTERMEDIATE
  70
32
  10
1531881.47
  20
2798148.99
  30
144
  0
VERTEX
  8
INTERMEDIATE
  70
32
  10
1531881.26
  20
2798147.22
  30
144
  0
VERTEX
  8
INTERMEDIATE
  70
32
  10
1531880.90
  20
2798145.47
  30
144
  0
VERTEX
  8
INTERMEDIATE
  70
32
  10
1531880.40
  20
2798143.78
  30
144
  0
VERTEX
  8
INTERMEDIATE
  70
32
  10
1531879.73
  20
2798142.16
  30
144
  0
VERTEX
  8
INTERMEDIATE
  70
32
  10
1531878.91
  20
2798140.71
  30
144
  0
VERTEX
  8
INTERMEDIATE
  70
32
  10
1531877.94
  20
2798139.33
  30
144
  0
VERTEX
  8
INTERMEDIATE
  70
32
  10
1531876.77
  20
2798137.93
  30
144
  0
VERTEX
  8
INTERMEDIATE
  70
32
  10
1531875.52
  20
2798136.57
  30
144
  0
VERTEX
  8
INTERMEDIATE
  70
32
  10
1531869.60
  20
2798130.43
  30
144
  0
VERTEX
  8
INTERMEDIATE
  70
32
  10
1531868.47
  20
2798129.36
  30
144
  0
VERTEX
  8
INTERMEDIATE
  70
32
  10
1531867.29
  20
2798128.37
  30
144
  0
VERTEX
  8
INTERMEDIATE
  70
32
  10
1531866.04
  20
2798127.48
  30
144
  0
VERTEX
  8
INTERMEDIATE
  70
32
  10
1531864.63
  20
2798126.69
  30
144
  0
VERTEX
  8
INTERMEDIATE
  70
32
  10
1531863.15
  20
2798126.05
  30
144
  0
VERTEX
  8
INTERMEDIATE
  70
32
  10
1531861.60
  20
2798125.54
  30
144
  0
VERTEX
  8
INTERMEDIATE
  70
32
  10
1531860.05
  20
2798125.16
  30
144
  0
VERTEX
  8
INTERMEDIATE
  70
32
  10
1531854.70
  20
2798124.24
  30
144
  0
VERTEX
  8
INTERMEDIATE
  70
32
  10
1531852.65
  20
2798123.85
  30
144
  0
VERTEX
  8
INTERMEDIATE
  70
32
  10
1531850.61
  20
2798123.41
  30
144
  0
VERTEX
  8
INTERMEDIATE
  70
32
  10
1531848.66
  20
2798122.92
  30
144
  0
VERTEX
  8
INTERMEDIATE
  70
32
  10
1531846.88
  20
2798122.42
  30
144
  0
VERTEX
  8
INTERMEDIATE
  70
32
  10
1531845.32
  20
2798121.92
  30
144
  0
VERTEX
  8
INTERMEDIATE
  70
32
  10
1531843.64
  20
2798121.32
  30
144
  0
VERTEX
  8
INTERMEDIATE
  70
32
  10
1531842.70
  20
2798121.04
  30
144
  0
VERTEX
  8
INTERMEDIATE
  70
32
  10
1531842.06
  20
2798120.90
  30
144
  0
VERTEX
  8
INTERMEDIATE
  70
32
  10
1531841.80
  20
2798120.87
  30
144
  0
SEQEND
  8
INTERMEDIATE
  0
POLYLINE
  8
INTERMEDIATE
  70
8
  66
1
 62
0
 39
0
  0
VERTEX
  8
INTERMEDIATE
  70
32
  10
1531845.42
  20
2798210.45
  30
146
  0
VERTEX
  8
INTERMEDIATE
  70
32
  10
1531849.14
  20
2798208.10
  30
146
  0
VERTEX
  8
INTERMEDIATE
  70
32
  10
1531852.18
  20
2798206.30
  30
146
  0
VERTEX
  8
INTERMEDIATE
  70
32
  10
1531853.88
  20
2798205.40
  30
146
  0
VERTEX
  8
INTERMEDIATE
  70
32
  10
1531856.61
  20
2798204.21
  30
146
  0
VERTEX
  8
INTERMEDIATE
  70
32
  10
1531857.22
  20
2798203.88
  30
146
  0
VERTEX
  8
INTERMEDIATE
  70
32
  10
1531857.89
  20
2798203.45
  30
146
  0
VERTEX
  8
INTERMEDIATE
  70
32
  10
1531858.53
  20
2798202.96
  30
146
  0
VERTEX
  8
INTERMEDIATE
  70
32
  10
1531859.14
  20
2798202.43
  30
146
  0
VERTEX
  8
INTERMEDIATE
  70
32
  10
1531859.73
  20
2798201.86
  30
146
  0
VERTEX
  8
INTERMEDIATE
  70
32
  10
1531860.86
  20
2798200.60
  30
146
  0
VERTEX
  8
INTERMEDIATE
  70
32
  10
1531863.54
  20
2798197.17
  30
146
  0
VERTEX
  8
INTERMEDIATE
  70
32
  10
1531864.66
  20
2798195.83
  30
146
  0
VERTEX
  8
INTERMEDIATE
  70
32
  10
1531865.28
  20
2798195.16
  30
146
  0
VERTEX
  8
INTERMEDIATE
  70
32
  10
1531867.89
  20
2798192.57
  30
146
  0
VERTEX
  8
INTERMEDIATE
  70
32
  10
1531868.51
  20
2798191.91
  30
146
  0
VERTEX
  8
INTERMEDIATE
  70
32
  10
1531869.09
  20
2798191.23
  30
146
  0
VERTEX
  8
INTERMEDIATE
  70
32
  10
1531869.62
  20
2798190.52
  30
146
  0
VERTEX
  8
INTERMEDIATE
  70
32
  10
1531870.02
  20
2798189.88
  30
146
  0
VERTEX
  8
INTERMEDIATE
  70
32
  10
1531870.37
  20
2798189.23
  30
146
  0
VERTEX
  8
INTERMEDIATE
  70
32
  10
1531871.80
  20
2798186.34
  30
146
  0
VERTEX
  8
INTERMEDIATE
  70
32
  10
1531872.74
  20
2798184.68
  30
146
  0
VERTEX
  8
INTERMEDIATE
  70
32
  10
1531873.33
  20
2798183.76
  30
146
  0
VERTEX
  8
INTERMEDIATE
  70
32
  10
1531874.02
  20
2798182.76
  30
146
  0
VERTEX
  8
INTERMEDIATE
  70
32
  10
1531876.00
  20
2798180.02
  30
146
  0
VERTEX
  8
INTERMEDIATE
  70
32
  10
1531876.78
  20
2798178.86
  30
146
  0
VERTEX
  8
INTERMEDIATE
  70
32
  10
1531877.04
  20
2798178.40
  30
146
  0
SEQEND
  8
INTERMEDIATE
  0
POLYLINE
  8
INTERMEDIATE
  70
8
  66
1
 62
0
 39
0
  0
VERTEX
  8
INTERMEDIATE
  70
32
  10
1531877.04
  20
2798178.40
  30
146
  0
VERTEX
  8
INTERMEDIATE
  70
32
  10
1531877.00
  20
2798178.34
  30
146
  0
VERTEX
  8
INTERMEDIATE
  70
32
  10
1531876.86
  20
2798177.84
  30
146
  0
VERTEX
  8
INTERMEDIATE
  70
32
  10
1531876.63
  20
2798176.38
  30
146
  0
VERTEX
  8
INTERMEDIATE
  70
32
  10
1531876.14
  20
2798170.76
  30
146
  0
VERTEX
  8
INTERMEDIATE
  70
32
  10
1531875.83
  20
2798168.41
  30
146
  0
VERTEX
  8
INTERMEDIATE
  70
32
  10
1531875.59
  20
2798167.05
  30
146
  0
VERTEX
  8
INTERMEDIATE
  70
32
  10
1531875.05
  20
2798164.74
  30
146
  0
VERTEX
  8
INTERMEDIATE
  70
32
  10
1531873.89
  20
2798160.33
  30
146
  0
VERTEX
  8
INTERMEDIATE
  70
32
  10
1531872.76
  20
2798155.58
  30
146
  0
VERTEX
  8
INTERMEDIATE
  70
32
  10
1531872.40
  20
2798154.41
  30
146
  0
VERTEX
  8
INTERMEDIATE
  70
32
  10
1531871.95
  20
2798153.28
  30
146
  0
VERTEX
  8
INTERMEDIATE
  70
32
  10
1531871.39
  20
2798152.20
  30
146
  0
VERTEX
  8
INTERMEDIATE
  70
32
  10
1531870.72
  20
2798151.16
  30
146
  0
VERTEX
  8
INTERMEDIATE
  70
32
  10
1531869.26
  20
2798149.18
  30
146
  0
VERTEX
  8
INTERMEDIATE
  70
32
  10
1531867.72
  20
2798147.27
  30
146
  0
VERTEX
  8
INTERMEDIATE
  70
32
  10
1531862.17
  20
2798140.59
  30
146
  0
VERTEX
  8
INTERMEDIATE
  70
32
  10
1531860.51
  20
2798138.69
  30
146
  0
VERTEX
  8
INTERMEDIATE
  70
32
  10
1531859.63
  20
2798137.81
  30
146
  0
VERTEX
  8
INTERMEDIATE
  70
32
  10
1531858.91
  20
2798137.19
  30
146
  0
VERTEX
  8
INTERMEDIATE
  70
32
  10
1531858.15
  20
2798136.63
  30
146
  0
VERTEX
  8
INTERMEDIATE
  70
32
  10
1531857.34
  20
2798136.15
  30
146
  0
VERTEX
  8
INTERMEDIATE
  70
32
  10
1531856.50
  20
2798135.73
  30
146
  0
VERTEX
  8
INTERMEDIATE
  70
32
  10
1531855.62
  20
2798135.36
  30
146
  0
VERTEX
  8
INTERMEDIATE
  70
32
  10
1531854.70
  20
2798135.03
  30
146
  0
VERTEX
  8
INTERMEDIATE
  70
32
  10
1531853.40
  20
2798134.69
  30
146
  0
VERTEX
  8
INTERMEDIATE
  70
32
  10
1531851.93
  20
2798134.40
  30
146
  0
VERTEX
  8
INTERMEDIATE
  70
32
  10
1531850.37
  20
2798134.18
  30
146
  0
VERTEX
  8
INTERMEDIATE
  70
32
  10
1531848.77
  20
2798134.03
  30
146
  0
VERTEX
  8
INTERMEDIATE
  70
32
  10
1531847.21
  20
2798133.96
  30
146
  0
VERTEX
  8
INTERMEDIATE
  70
32
  10
1531845.76
  20
2798133.98
  30
146
  0
VERTEX
  8
INTERMEDIATE
  70
32
  10
1531844.64
  20
2798134.05
  30
146
  0
VERTEX
  8
INTERMEDIATE
  70
32
  10
1531843.69
  20
2798134.16
  30
146
  0
VERTEX
  8
INTERMEDIATE
  70
32
  10
1531842.35
  20
2798134.41
  30
146
  0
SEQEND
  8
INTERMEDIATE
  0
POLYLINE
  8
INTERMEDIATE
  70
8
  66
1
 62
0
 39
0
  0
VERTEX
  8
INTERMEDIATE
  70
32
  10
1531888.00
  20
2797938.93
  30
148
  0
VERTEX
  8
INTERMEDIATE
  70
32
  10
1531886.69
  20
2797939.40
  30
148
  0
VERTEX
  8
INTERMEDIATE
  70
32
  10
1531885.39
  20
2797939.73
  30
148
  0
VERTEX
  8
INTERMEDIATE
  70
32
  10
1531884.06
  20
2797939.97
  30
148
  0
VERTEX
  8
INTERMEDIATE
  70
32
  10
1531882.71
  20
2797940.12
  30
148
  0
VERTEX
  8
INTERMEDIATE
  70
32
  10
1531880.87
  20
2797940.17
  30
148
  0
VERTEX
  8
INTERMEDIATE
  70
32
  10
1531879.02
  20
2797940.11
  30
148
  0
VERTEX
  8
INTERMEDIATE
  70
32
  10
1531877.15
  20
2797939.96
  30
148
  0
VERTEX
  8
INTERMEDIATE
  70
32
  10
1531875.29
  20
2797939.76
  30
148
  0
VERTEX
  8
INTERMEDIATE
  70
32
  10
1531869.89
  20
2797939.09
  30
148
  0
VERTEX
  8
INTERMEDIATE
  70
32
  10
1531868.24
  20
2797938.82
  30
148
  0
VERTEX
  8
INTERMEDIATE
  70
32
  10
1531866.65
  20
2797938.45
  30
148
  0
VERTEX
  8
INTERMEDIATE
  70
32
  10
1531865.24
  20
2797937.96
  30
148
  0
VERTEX
  8
INTERMEDIATE
  70
32
  10
1531863.95
  20
2797937.33
  30
148
  0
VERTEX
  8
INTERMEDIATE
  70
32
  10
1531862.78
  20
2797936.58
  30
148
  0
VERTEX
  8
INTERMEDIATE
  70
32
  10
1531861.78
  20
2797935.69
  30
148
  0
VERTEX
  8
INTERMEDIATE
  70
32
  10
1531860.98
  20
2797934.66
  30
148
  0
VERTEX
  8
INTERMEDIATE
  70
32
  10
1531860.39
  20
2797933.34
  30
148
  0
VERTEX
  8
INTERMEDIATE
  70
32
  10
1531860.10
  20
2797931.87
  30
148
  0
VERTEX
  8
INTERMEDIATE
  70
32
  10
1531860.04
  20
2797930.69
  30
148
  0
VERTEX
  8
INTERMEDIATE
  70
32
  10
1531860.10
  20
2797929.47
  30
148
  0
VERTEX
  8
INTERMEDIATE
  70
32
  10
1531860.24
  20
2797928.22
  30
148
  0
VERTEX
  8
INTERMEDIATE
  70
32
  10
1531860.69
  20
2797925.53
  30
148
  0
VERTEX
  8
INTERMEDIATE
  70
32
  10
1531861.54
  20
2797921.09
  30
148
  0
VERTEX
  8
INTERMEDIATE
  70
32
  10
1531861.92
  20
2797919.57
  30
148
  0
VERTEX
  8
INTERMEDIATE
  70
32
  10
1531862.40
  20
2797918.10
  30
148
  0
VERTEX
  8
INTERMEDIATE
  70
32
  10
1531862.85
  20
2797917.03
  30
148
  0
VERTEX
  8
INTERMEDIATE
  70
32
  10
1531863.38
  20
2797916.00
  30
148
  0
VERTEX
  8
INTERMEDIATE
  70
32
  10
1531863.86
  20
2797915.16
  30
148
  0
VERTEX
  8
INTERMEDIATE
  70
32
  10
1531864.87
  20
2797913.62
  30
148
  0
VERTEX
  8
INTERMEDIATE
  70
32
  10
1531868.50
  20
2797908.51
  30
148
  0
VERTEX
  8
INTERMEDIATE
  70
32
  10
1531869.41
  20
2797907.18
  30
148
  0
VERTEX
  8
INTERMEDIATE
  70
32
  10
1531871.14
  20
2797904.46
  30
148
  0
VERTEX
  8
INTERMEDIATE
  70
32
  10
1531871.96
  20
2797903.07
  30
148
  0
VERTEX
  8
INTERMEDIATE
  70
32
  10
1531872.93
  20
2797901.35
  30
148
  0
VERTEX
  8
INTERMEDIATE
  70
32
  10
1531873.84
  20
2797899.62
  30
148
  0
VERTEX
  8
INTERMEDIATE
  70
32
  10
1531874.69
  20
2797897.85
  30
148
  0
VERTEX
  8
INTERMEDIATE
  70
32
  10
1531876.92
  20
2797892.80
  30
148
  0
VERTEX
  8
INTERMEDIATE
  70
32
  10
1531878.19
  20
2797890.15
  30
148
  0
VERTEX
  8
INTERMEDIATE
  70
32
  10
1531878.91
  20
2797888.79
  30
148
  0
VERTEX
  8
INTERMEDIATE
  70
32
  10
1531880.44
  20
2797886.10
  30
148
  0
VERTEX
  8
INTERMEDIATE
  70
32
  10
1531881.15
  20
2797884.97
  30
148
  0
VERTEX
  8
INTERMEDIATE
  70
32
  10
1531882.60
  20
2797882.72
  30
148
  0
VERTEX
  8
INTERMEDIATE
  70
32
  10
1531886.44
  20
2797877.10
  30
148
  0
VERTEX
  8
INTERMEDIATE
  70
32
  10
1531888.00
  20
2797874.72
  30
148
  0
SEQEND
  8
INTERMEDIATE
  0
POLYLINE
  8
INTERMEDIATE
  70
8
  66
1
 62
0
 39
0
  0
VERTEX
  8
INTERMEDIATE
  70
32
  10
1531861.36
  20
2798182.17
  30
148
  0
VERTEX
  8
INTERMEDIATE
  70
32
  10
1531857.69
  20
2798185.69
  30
148
  0
VERTEX
  8
INTERMEDIATE
  70
32
  10
1531856.66
  20
2798186.81
  30
148
  0
VERTEX
  8
INTERMEDIATE
  70
32
  10
1531856.05
  20
2798187.59
  30
148
  0
VERTEX
  8
INTERMEDIATE
  70
32
  10
1531855.79
  20
2798188.01
  30
148
  0
VERTEX
  8
INTERMEDIATE
  70
32
  10
1531855.37
  20
2798188.88
  30
148
  0
VERTEX
  8
INTERMEDIATE
  70
32
  10
1531855.04
  20
2798189.80
  30
148
  0
VERTEX
  8
INTERMEDIATE
  70
32
  10
1531854.28
  20
2798192.13
  30
148
  0
VERTEX
  8
INTERMEDIATE
  70
32
  10
1531853.94
  20
2798193.01
  30
148
  0
VERTEX
  8
INTERMEDIATE
  70
32
  10
1531853.74
  20
2798193.41
  30
148
  0
VERTEX
  8
INTERMEDIATE
  70
32
  10
1531853.51
  20
2798193.78
  30
148
  0
VERTEX
  8
INTERMEDIATE
  70
32
  10
1531853.24
  20
2798194.09
  30
148
  0
VERTEX
  8
INTERMEDIATE
  70
32
  10
1531852.95
  20
2798194.32
  30
148
  0
VERTEX
  8
INTERMEDIATE
  70
32
  10
1531852.63
  20
2798194.50
  30
148
  0
VERTEX
  8
INTERMEDIATE
  70
32
  10
1531852.29
  20
2798194.63
  30
148
  0
VERTEX
  8
INTERMEDIATE
  70
32
  10
1531851.94
  20
2798194.71
  30
148
  0
VERTEX
  8
INTERMEDIATE
  70
32
  10
1531851.58
  20
2798194.72
  30
148
  0
VERTEX
  8
INTERMEDIATE
  70
32
  10
1531851.24
  20
2798194.67
  30
148
  0
VERTEX
  8
INTERMEDIATE
  70
32
  10
1531850.85
  20
2798194.51
  30
148
  0
VERTEX
  8
INTERMEDIATE
  70
32
  10
1531850.49
  20
2798194.27
  30
148
  0
VERTEX
  8
INTERMEDIATE
  70
32
  10
1531850.14
  20
2798193.98
  30
148
  0
VERTEX
  8
INTERMEDIATE
  70
32
  10
1531849.11
  20
2798192.97
  30
148
  0
VERTEX
  8
INTERMEDIATE
  70
32
  10
1531848.74
  20
2798192.65
  30
148
  0
VERTEX
  8
INTERMEDIATE
  70
32
  10
1531848.29
  20
2798192.39
  30
148
  0
VERTEX
  8
INTERMEDIATE
  70
32
  10
1531847.77
  20
2798192.23
  30
148
  0
VERTEX
  8
INTERMEDIATE
  70
32
  10
1531847.26
  20
2798192.19
  30
148
  0
VERTEX
  8
INTERMEDIATE
  70
32
  10
1531846.74
  20
2798192.24
  30
148
  0
VERTEX
  8
INTERMEDIATE
  70
32
  10
1531846.22
  20
2798192.34
  30
148
  0
VERTEX
  8
INTERMEDIATE
  70
32
  10
1531845.33
  20
2798192.64
  30
148
  0
VERTEX
  8
INTERMEDIATE
  70
32
  10
1531844.71
  20
2798192.93
  30
148
  0
SEQEND
  8
INTERMEDIATE
  0
POLYLINE
  8
INTERMEDIATE
  70
8
  66
1
 62
0
 39
0
  0
VERTEX
  8
INTERMEDIATE
  70
32
  10
1531843.18
  20
2798154.93
  30
148
  0
VERTEX
  8
INTERMEDIATE
  70
32
  10
1531844.94
  20
2798155.66
  30
148
  0
VERTEX
  8
INTERMEDIATE
  70
32
  10
1531846.69
  20
2798156.45
  30
148
  0
VERTEX
  8
INTERMEDIATE
  70
32
  10
1531848.74
  20
2798157.46
  30
148
  0
VERTEX
  8
INTERMEDIATE
  70
32
  10
1531849.78
  20
2798158.02
  30
148
  0
VERTEX
  8
INTERMEDIATE
  70
32
  10
1531851.60
  20
2798159.05
  30
148
  0
VERTEX
  8
INTERMEDIATE
  70
32
  10
1531860.16
  20
2798164.17
  30
148
  0
VERTEX
  8
INTERMEDIATE
  70
32
  10
1531861.52
  20
2798165.05
  30
148
  0
VERTEX
  8
INTERMEDIATE
  70
32
  10
1531862.17
  20
2798165.52
  30
148
  0
VERTEX
  8
INTERMEDIATE
  70
32
  10
1531862.77
  20
2798166.02
  30
148
  0
VERTEX
  8
INTERMEDIATE
  70
32
  10
1531863.32
  20
2798166.57
  30
148
  0
VERTEX
  8
INTERMEDIATE
  70
32
  10
1531863.79
  20
2798167.14
  30
148
  0
VERTEX
  8
INTERMEDIATE
  70
32
  10
1531864.20
  20
2798167.75
  30
148
  0
VERTEX
  8
INTERMEDIATE
  70
32
  10
1531864.94
  20
2798169.07
  30
148
  0
VERTEX
  8
INTERMEDIATE
  70
32
  10
1531865.70
  20
2798170.65
  30
148
  0
VERTEX
  8
INTERMEDIATE
  70
32
  10
1531866.73
  20
2798173.10
  30
148
  0
VERTEX
  8
INTERMEDIATE
  70
32
  10
1531867.33
  20
2798174.75
  30
148
  0
VERTEX
  8
INTERMEDIATE
  70
32
  10
1531867.58
  20
2798175.58
  30
148
  0
VERTEX
  8
INTERMEDIATE
  70
32
  10
1531867.78
  20
2798176.40
  30
148
  0
VERTEX
  8
INTERMEDIATE
  70
32
  10
1531867.90
  20
2798177.23
  30
148
  0
VERTEX
  8
INTERMEDIATE
  70
32
  10
1531867.93
  20
2798177.99
  30
148
  0
VERTEX
  8
INTERMEDIATE
  70
32
  10
1531867.87
  20
2798178.73
  30
148
  0
VERTEX
  8
INTERMEDIATE
  70
32
  10
1531867.65
  20
2798179.47
  30
148
  0
VERTEX
  8
INTERMEDIATE
  70
32
  10
1531867.30
  20
2798180.11
  30
148
  0
VERTEX
  8
INTERMEDIATE
  70
32
  10
1531866.82
  20
2798180.70
  30
148
  0
VERTEX
  8
INTERMEDIATE
  70
32
  10
1531866.22
  20
2798181.21
  30
148
  0
VERTEX
  8
INTERMEDIATE
  70
32
  10
1531865.52
  20
2798181.61
  30
148
  0
VERTEX
  8
INTERMEDIATE
  70
32
  10
1531864.59
  20
2798181.95
  30
148
  0
VERTEX
  8
INTERMEDIATE
  70
32
  10
1531863.64
  20
2798182.14
  30
148
  0
VERTEX
  8
INTERMEDIATE
  70
32
  10
1531862.75
  20
2798182.22
  30
148
  0
VERTEX
  8
INTERMEDIATE
  70
32
  10
1531862.02
  20
2798182.23
  30
148
  0
VERTEX
  8
INTERMEDIATE
  70
32
  10
1531861.36
  20
2798182.17
  30
148
  0
SEQEND
  8
INTERMEDIATE
  0
ENDSEC
  0
EOF
